This Providence - Letdown tab

Esta es una de mis canciones favoritas y espero hacer un gran aporte con ella...la saque 
de acuerdo al sonido...es decir de oido :)
porq hay otras que no me convencian :)

Guitar 1
eb|-----------------------------------------------------|
Bb|-----5-5------------------------5-5------------------|
Gb|-5-7-----5-7---5-444-5------5-7-----7-55---2-444-5-2~|
Db|-----------------------------------------------------|
Ab|-----------------------------------------------------|
Eb|-----------------------------------------------------|

Guitar 2
eb|---------------------12--------------------------------|
Bb|----13-15---15-13-------13--------13----15-13----13----|
Gb|-12---------------12-------12--12----12-------12-------|
Db|-------------------------------------------------------|
Ab|-------------------------------------------------------|
Eb|-------------------------------------------------------|


Bass
I got those lovesick blues(Se detienen las guitarras y queda solo el bajo hasta el coro)

Gb|-------------------------------------------------------|
Db|-------------------------------------------------------|
Ab|-0(x8)-------3(x8)---------------3(x6)-----------------|
Eb|-------1(x4)-------3(x4)--1(x8)---------3(x6)----------|

Pre Chorus
do do dodo...(empiezan las guitarras)
eb|---------|
Bb|---------|
Gb|---------|
Db|-3-------|
Ab|-3-(x16)-|
Eb|-1-------|

Chorus x2
She said "you're just a let down...
eb|---------------------------------------|
Bb|---------------------------------------|
Gb|-5-------------------------------------|
Db|-5-(x16)-7-(x16)-5-(x16)-3-(x8)-5-(x8)-|
Ab|-3-------7-------5-------3------5------|
Eb|---------5-------3-------1------3------|

Pre Verse
eb|-555-333----------------------------|
Bb|---------555-333--------------------|
Gb|-------------------5-55-444-22------|
Db|------------------------------------|
Ab|------------------------------------|
Eb|------------------------------------|



Toda la cancion es igual...solo tienen que guiarse del sonido para que encage con cada 
tab :)
Tap to rate this tab
 
# A B C D E F G H I J K L M N O P Q R S T U V W X Y Z