Song name
# A B C D E F G H I J K L M N O P Q R S T U V W X Y Z

This Providence - Certain Words In Uncertain Times tab

This Providence - Certain Words In Uncertain Times

***this song is played in standard tuned down 1/2 step***
*** Eb Ab Db Gb Bb Eb ***

Intro/Verse (x5)
e ---x---x---x---|
B ---7---5---4---|
G ---8---4---4---|
D ---x---x---x---|
A ---7---4---4---|
E ---x---x---x---|

Pre-Chorus (x2)
e ---0---0---0--------------------0---------|
B ---0---0---0--------------------0---------|
G ---4---6---2--------------------5---------|
D ---4---6---2--------------------4---------|
A ---2---4---0--------------------3---------|
E ---x---x---x--------------------x---------|
                               after 2nd time only


Chorus (x2)
e ---0---0---0---0---0---0--------------------0---------|
B ---0---0---0---0---0---7--------------------0---------|
G ---1---3---2---1---3---6--------------------6---------|
D ---2---4---2---2---4---7--------------------6---------|
A ---2---4---0---2---4---5--------------------4---------|
E ---0---x---x---0---x---x--------------------x---------|
                                                after 2nd time only


Verse (x4)
e ---x---x---x---|
B ---7---5---4---|
G ---8---4---4---|
D ---x---x---x---|
A ---7---4---4---|
E ---x---x---x---|

Pre-Chorus (x2)
e ---0---0---0--------------------0---------|
B ---0---0---0--------------------0---------|
G ---4---6---2--------------------5---------|
D ---4---6---2--------------------4---------|
A ---2---4---0--------------------3---------|
E ---x---x---x--------------------x---------|
                               after 2nd time only


Chorus (x2)
e ---0---0---0---0---0---0--------------------0---0---0---0---|
B ---0---0---0---0---0---7--------------------0---0---0---0---|
G ---1---3---2---1---3---6--------------------6---3---4---6---|
D ---2---4---2---2---4---7--------------------6---4---6---7---|
A ---2---4---0---2---4---5--------------------4---4---6---7---|
E ---0---x---x---0---x---x--------------------x---2---x---5---|
                                                        after 2nd time only


Bridge (x1)
e ---0---0---0---0---0---0---0---0---|
B ---0---0---0---0---0---0---0---0---|
G ---1---3---4---6---6---4---2---5---|
D ---2---4---6---7---6---4---2---4---|
A ---2---4---6---7---4---2---0---3---|
E ---0---2---x---5---x---x---x---x---|

Chorus/Ending (x2)
e ---0---0---0---0---0---0--------------------0---0---0------|
B ---0---0---0---0---0---7--------------------0---0---0------|
G ---1---3---2---1---3---6--------------------6---2---5------|
D ---2---4---2---2---4---7--------------------6---2---4------|
A ---2---4---0---2---4---5--------------------4---0---3------|
E ---0---x---x---0---x---x--------------------x---x---x------|
                                                   end on after 2nd time

tabbed by Sidney
Tap to rate this tab
 
# A B C D E F G H I J K L M N O P Q R S T U V W X Y Z