Song name
# A B C D E F G H I J K L M N O P Q R S T U V W X Y Z

This Providence - Wolf In Sheeps Clothingintro tab

Tuning: 1/2 step down

this is what im hearing, some pleeasee tab the rest of this song, asap, its an amazing 
or correct mine if its wrong.

Intro

   [(x8) (x8) ] x 2 [                  ]x 4
eb---0----(0)------------------------00-------------------------------------|
Bb---1-----0-------------------------11-------------------------------------|
Gb---2-----1-------------------------22-------------------------------------|
Db---2-----2-------------------------22-------------------------------------|
Ab-0-------2---------2h3--0~--2h3--0~---------------------------------------|
Eb-------0------------------------------------------------------------------|


verse
   (x8)  (x4)  (x4)
eb--(0)*--------------------------------------------------------------------|
Bb---1 *--(0)*--(0)*--------------------------------------------------------|
Gb---2 *---1 *---0 *--------------------------------------------------------|
Db---2 *---2 *---2 *--------------------------------------------------------|
Ab---------2 *---2 *--------------------------------------------------------|
Eb--------------------------------------------------------------------------|
Tap to rate this tab
 
# A B C D E F G H I J K L M N O P Q R S T U V W X Y Z