Song name
# A B C D E F G H I J K L M N O P Q R S T U V W X Y Z

This Providence - Wolf In Sheeps Clothing tab

----------------------------------------------------------------------------
	        WOLF IN SHEEP'S CLOTHING - This Providence
----------------------------------------------------------------------------
Tabbed by: James Uhall 
Email: (anarchist_punk08@yahoo.com)
MySpace: www.myspace.com/james_u.html

Tuning: 1/2 Step Down

Clean

eb|---|-------------------|   |---------------------|
Bb|---|-------------------|   |---------------------|
Gb|---|.-6-6-6-6-6-6-6-6-.|   |-2-2-2-2-------------|
Db|---|.-6-6-6-6-6-6-6-6-.|x3 |-2-2-2-2-6-6-6-6-666-|
Ab|-4-|--4-4-4-4-4-4-4-4--|   |-0-0-0-0-6-6-6-6-666-|
Eb|---|-------------------|   |---------4-4-4-4-444-|

Switch to Gain

eb|---------------------------------|
Bb|---------------------------------|
Gb|.-----------------------------6-.|
Db|.-----------------------------6-.|x2
Ab|--2h4-0-2h4---4-2-2h4-0-2h4---4--|
Eb|------------4---------------4----|

eb|-----------------------------------|
Bb|-----------------------------------|
Gb|.-6-6-6-6-6-6-6-6-2-2-2-2---------.|
Db|.-6-6-6-6-6-6-6-6-2-2-2-2-6-6-6-6-.|x2
Ab|--4-4-4-4-4-4-4-4-0-0-0-0-6-6-6-6--|
Eb|--------------------------4-4-4-4--|

eb|-------------------|
Bb|-------------------|
Gb|-22222222-44444444-|
Db|-22222222-44444444-|
Ab|-00000000-22222222-|
Eb|-------------------|

eb|----------------------------------------|
Bb|----------------------------------------|
Gb|.-66-6-6--22-2-2-22----------4444-5555-.|
Db|.-66-6-6--22-2-2-22-44444444-4444-5555-.|
Ab|--44-4-4--00-0-0-00-44444444-2222-3333--|
Eb|--------------------22222222------------|

eb|---------------------------------------------------------------|
Bb|---------------------------------------------------------------|
Gb|-6-6-666-66------------------4-6-6-6-6-6-6-6-6-----------------|
Db|-6-6-666-66----4-4-4-4-6-6-6-4-6-6-6-6-6-6-6-6-4-4-4-4-6-6-6-6-|
Ab|-4-4-444-44-54-4-4-4-4-6-6-6-2-4-4-4-4-4-4-4-4-4-4-4-4-6-6-6-6-|
Eb|---------------2-2-2-2-4-4-4-------------------2-2-2-2-4-4-4-4-|

eb|-------------------|
Bb|-------------------|
Gb|-44444444-55555555-|
Db|-44444444-55555555-|
Ab|-22222222-33333333-|
Eb|-------------------|

eb|----------------------------------------|
Bb|----------------------------------------|
Gb|.-66-6-6--22-2-2-22----------4444-5555-.|
Db|.-66-6-6--22-2-2-22-44444444-4444-5555-.|
Ab|--44-4-4--00-0-0-00-44444444-2222-3333--|
Eb|--------------------22222222------------|

eb|---9-7-7-5-5575-9999-9-7-7-5-5575--------------------|
Bb|---7-5-5-3-3353-7777-7-5-5-3-3353--------------------|
Gb|-6---------------------------------------------------|
Db|-6---------------------------------6~666666666666666-|
Ab|-4---------------------------------6~666666666666666-|
Eb|-----------------------------------4~444444444444444-|

eb|--------------------------------------|
Bb|--------------------------------------|
Gb|.-9999999999999999-66666666-44444444-.|
Db|.-9999999999999999-66666666-44444444-.|x2
Ab|--7777777777777777-44444444-22222222--|
Eb|--------------------------------------|

eb|-------------------------------------------------------|
Bb|-------------------------------------------------------|
Gb|-2222222222222222-3333333333333333-4444444444444444-5~-|
Db|-2222222222222222-3333333333333333-4444444444444444-5~-|
Ab|-0000000000000000-1111111111111111-2222222222222222-3~-|
Eb|-------------------------------------------------------|

eb|----------------------------------------|   |----|
Bb|----------------------------------------|   |----|
Gb|.-66-6-6--22-2-2-22----------4444-5555-.|   |-6~-|
Db|.-66-6-6--22-2-2-22-44444444-4444-5555-.|x2 |-6~-|
Ab|--44-4-4--00-0-0-00-44444444-2222-3333--|   |-4~-|
Eb|--------------------22222222------------|   |----|

Clean

eb|-------------------------------------|   
Bb|-------------------------------------|  
Gb|-6-6-6-6-6-6-6-6-6-6-6-6-6-6-6-6-66~-|
Db|-6-6-6-6-6-6-6-6-6-6-6-6-6-6-6-6-66~-|
Ab|-4-4-4-4-4-4-4-4-4-4-4-4-4-4-4-4-44~-|   
Eb|-------------------------------------|   

| /  slide up
| \  slide down
| h  hammer-on
| p  pull-off
| ~  vibrato
| +  harmonic
| x  Mute note

============================================================================

Give me a shout if you find something wrong with this tab, this is the my first tab after all.



Tap to rate this tab
 
# A B C D E F G H I J K L M N O P Q R S T U V W X Y Z