Song name
# A B C D E F G H I J K L M N O P Q R S T U V W X Y Z

This Providence - Card House Dreamer tab

Song: Card House Dreamer
Album: This Providence
Band: This Providence
Tabber: Calum Neil (afirock74@hotmail.com)
Tuning: Flat Tuning (tuned down 1/2 a step)

Intro: 1
e|-----------------|-----------------------------------|
b|-4~--------------|-4-4-------------------------------|
g|-3~--------------|-3-3--5-5-5-5----1-1---------------|
d|-3~------5-5-5-5-|-3-3--6-6-6-6-6--3-3---5-5-5-5-3---|
a|-1~------6-6-6-6-|-1-1----------8--4-4---6-6-6-6-4---|
E|-----------------|-----------------------------------|

Riff:
e|--------------------|
b|--------------------|
g|-------1--1-1-1-----|
d|----------------3---|
a|--1-1---------------|
E|--------------------|

Chorus:
e|-------------------------------------------------------|
b|-4-4-4-4-4-4---------------7-7-7-7-7-7-----------------|
g|-3-3-3-3-3-3--6-6-6-6-6-6--6-6-6-6-6-6--5-5-5-5-5-5-5--|
d|-3-3-3-3-3-3--6-6-6-6-6-6--4-4-4-4-4-4--6-6-6-6-6-6-6--|
a|-1-1-1-1-1-1--4-4-4-4-4-4---------------6-6-6-6-6-6-6--|
E|----------------------------------------4-4-4-4-4-4-4--|

Bridge:                                     First time         Second time
e|---------------2-2--2-2-2-2---------------|-----------------|---------------|
b|---------------2-2--2-2-2-2--6-6--6-6-6-6-|-----------------|---------------|
g|-8-8--8-8-8-8--2-2--2-2-2-2--6-6--6-6-6-6-|-6-6--6-6-6-6-6--|---------------|
d|-8-8--8-8-8-8--4-4--4-4-4-4--6-6--6-6-6-6-|-3-3--3-3-3-3-3--|-6-6--6-6-6-6--|
a|-6-6--6-6-6-6--4-4--4-4-4-4--4-4--4-4-4-4-|-4-4--4-4-4-4-4--|-6-6--6-6-6-6--|
E|---------------2-2--2-2-2-2---------------|-----------------|-4-4--4-4-4-4--|

Tap to rate this tab
# A B C D E F G H I J K L M N O P Q R S T U V W X Y Z