Song name
# A B C D E F G H I J K L M N O P Q R S T U V W X Y Z

This Providence - Secret Love And The Fastest Way To Loneliness tab

Help us improve GuitareTab! Take a short survey!
Song: Secret Love and the Fastest Way to Loneliness
Album: This Providence
Band: This Providence
Tabber: Calum Neil (afirock74@hotmail.com)
Tuning: Flat Tuning (tuned down 1/2 a step)

Intro: 1
e|-0------------------------------------------|
b|-3--3-3-3-3---------------------------------|
g|-4--4-4-4-4----7--7-7--12--12-12--9--9--9---|
d|-4--4-4-4-4----7--7-7--12--12-12--8--8--8---|
a|-2--0h2-2-2----5--5-5--10--10-10--9--9--9---|
E|--------------------------------------------|

Intro 2:
e|-------0-------------------------------------|
b|-------3-------5-5h7p5---------5---5--5-5-3--| 2x
g|-------4-------3-------7p3----2---2---3-3-3--|
d|-------4-------4-------------2---2----4-4-2--|
a|-0h2-2---2-2---------------------------------|
E|---------------------------------------------|

Verse Guitar 1:
e|--------------------------------------------|
b|-3---3---3-3-3----3---3-3-3-----------------|
g|-4---4---4-4-4----4---4-4-4----4--7-7--6-6--|
d|-4---4---4-4-4----4---4-4-4----5--7-7--7-7--|
a|-2-0h2-0h2-0-2--0h2-0h2-0-2----5--5-5--7-7--|
E|-------------------------------3-------5-5--|

Verse Guitar 2:
e|-0------------------------------------------|
b|-3-----------------------------8------------|
g|-4-----------------------------7--7-7--6-6--|
d|-4-----------------------------5--7-7--7-7--|
a|-2--------------------------------5-5--7-7--|
E|---------------------------------------5-5--|


Riff:
e|-----------------------|
b|---7----5----5----3----| 2x
g|--7-7--6-5--3-3--2-2---|
d|-9----7----4----2------|
a|-----------------------|
E|-----------------------|


Riff 2:
e|-------------------------------------|--------|--------|
b|-----------3-3h5-5-3-----------3-3h5-|---3-5p3|-3-2----| 
g|-2-2h4-4-2-----------2-2h4-4-2-------|-2------|-4-3----|
d|-------------------------------------|--------|-5-4----|
a|-------------------------------------|--------|-5-4----|
E|-------------------------------------|--------|-3-2----|


Pre 2nd Chorus:
e|-------------------2---|
b|-3-----3---3-3-3---2---|
g|-4-----4---4-4-4---3---|
d|-4-----2---4-4-4---4---|
a|-2---------2-2-2---4---|
E|-------------------2---|

Last Riff:
e|-----------------------------------------------|
b|-----------------------------------------------|
g|-----------------------------------------------|
d|--------0-----------0--------3-2------0-2------|
a|-2--0-2---2-0-2--0-2--2-0-2-------4-5----------|
E|-----------------------------------------------|
Related for Secret Love And The Fastest Way To Loneliness tab