Song name
# A B C D E F G H I J K L M N O P Q R S T U V W X Y Z

This Providence - But What Will They Say tab

Help us improve GuitareTab! Take a short survey!
Song: ...But What Will They Say?
Album: This Providence
Band: This Providence
Tabber: Calum Neil (afirock74@hotmail.com)
Tuning: Flat Tuning (tuned down 1/2 a step)

Intro: 1
Eb|--------------------------------------------------------------|
Bb|--------------------------------------------------------------|
F#|-10--12--5------------------5-5-7-7------------------5-5-7----|
C#|-10--12--5-------3----------0-0-0-0-------3----------0-0-0-5--|
G#|-8---10--3--5-3-5--5-3--3-5----------5-3-5--5-3--3-5----------|
C#|--------------------------------------------------------------|

Chorus:
Eb|-1--3--------------------------------------------------------------------|
Bb|-1--3--------------------------------------------------------------------|
F#|-2--3---7-7-7--7-7-7--6-6-6--6-6-6--10-10-10--10-10-10-------------5/7---|
C#|-3--5---7-7-7--7-7-7--8-8-8--8-8-8--10-10-10--10-10-10--10-10-10---5/7---|
G#|-3--5---5-5-5--5-5-5--8-8-8--8-8-8--8--8--8---8--8--8---10-10-10---3/5---|
C#|-1--3-----------------6-6-6--6-6-6----------------------8--8--8----------|

Bridge:
Eb|------------------------------------------------------------------|
Bb|------------------------------------------------------------------|
F#|----7-7-7--7-7-7--6-6-6--6-6-6--10-10-10--10-10-10----------------|
C#|----7-7-7--7-7-7--8-8-8--8-8-8--10-10-10--10-10-10--10-10-10------|
G#|----5-5-5--5-5-5--8-8-8--8-8-8--8--8--8---8--8--8---10-10-10------|
C#|------------------6-6-6--6-6-6----------------------8--8--8-------|
Related for But What Will They Say tab