Guitaretab - guitar tabs
Song name
# A B C D E F G H I J K L M N O P Q R S T U V W X Y Z

This Providence - Truth And Reconciliation tab

THIS IS NOT 100% PERFECT! IF YOU HAVE ANY CORRECTIONS PLEASE E-MAIL ME ON 
THANKS/DIOLCH.

Band: This Providence
Song: Truth and Reconciliation
Tuning: E Flat (Eb, Ab, Db, Gb, Bb, Eb)

Intro
|-----------------------|
|4555-------------------|
|6666--------7888--7888-|
|6666--7777--9999--9999-|
|4444--7777--9999--9999-|
|------5555--7777--7777-|

If you'd just trust in me
You know I trust you
We'll do all the things that you've dreamed to do
If you'd just let go
If you'd let your heart go

Verse
|----77997---|
|7975------9-|
|------------|
|------------|
|------------|
|------------|

|------------------------|
|------555555------------|
|888888666666------------|
|999999666666777777777777
|999999444444777777777777
|777777------555555555555

Take me past the color of your eyes
Take me from the past of all my mistakes to where the future lies
I know that my moods were changing like the weather
do you ever dream of us together?
Now I just want to show you who I am

Pre-chorus
|------------------------------------------------|
|55-55-55-55-------------------------------------|
|66-66-66-66-88-88-88-88-------------------------|
|66-66-66-66-99-99-99-99-66-66-66-66-77-77-77-77-|
|44-44-44-44-99-99-99-99-66-66-66-66-77-77-77-77-|
|------------77-77-77-77-44-44-44-44-55-55-55-55-|

[voice effects]
Remember when I used to be your everything?
Now Iím nothing at all
Nothing at all
Now Iím nothing at all

|------------------------|
|------555555------------|
|888888666666------------|
|999999666666777777777777
|999999444444777777777777
|777777------555555555555
[ Tab from: http://www.guitaretab.com/t/this-providence/86887.html ]
Holding on to dreams we collide
We had our futures
Our reasons
Our fingers on the trigger
When we base our joy on the things that we see
We lose the trust in it all and the faith we believe

Chorus
|-----------------------|
|4555-------------------|
|6666--------7888--7888-|
|6666--7777--9999--9999-|
|4444--7777--9999--9999-|
|------5555--7777--7777-|

If you'd just trust in me
You know I trust you
We'll do all the things that you've dreamed to do
If you'd just let go
If you'd let your heart go

Bridge
|------------------------------------------------|
|------------------------55-55-55-55-------------|
|------------88-88-88-88-66-66-66-66-88-88-88-88-|
|77-77-77-77-99-99-99-99-66-66-66-66-99-99-99-99-|
|77-77-77-77-99-99-99-99-44-44-44-44-99-99-99-99-|
|55-55-55-55-77-77-77-77-------------77-77-77-77-|

|------------------------------------------------|
|------------------------------------------------|
|------------88-88-88-88-------------88-88-88-88-|
|77-77-77-77-99-99-99-99-77-77-77-77-99-99-99-99-|
|77-77-77-77-99-99-99-99-77-77-77-77-99-99-99-99-|
|55-55-55-55-77-77-77-77-55-55-55-55-77-77-77-77-|

|---------------------------|
|5555555555555--------------|
|6666666666666--------88-88-|
|6666666666666--77-77-99-99-|
|4444444444444--77-77-99-99-|
|---------------55-55-77-77-|

Remember when I used to be your everything?
Now I'm nothing at all
Trust me I've tried to let you go
But I can't move on
I cant move on

Chorus
|-----------------------|
|4555-------------------|
|6666--------7888--7888-|
|6666--7777--9999--9999-|
|4444--7777--9999--9999-|
|------5555--7777--7777-|

What I do now will affect what comes next
And this life that I lead will be everything you need
I pray to be all that you dream
and I'll die trying to be

|-
|-
|9
|9
|7
|-
Related for Truth And Reconciliation tab