Guitaretab - guitar tabs
Song name
# A B C D E F G H I J K L M N O P Q R S T U V W X Y Z

This Providence - A Wolf In Sheeps Clothing tab

	     A Wolf In Sheeps Clothing - This Providence
----------------------------------------------------------------------------
Tabbed by: Billy G
Email:tosh2894@yahoo.com

Tuning: half step down
   intro
eb|----------------------|   |---------------------|
Bb|----5-5-5-5-5-5-5-5---|   |-1-1-1-1-------------|
Gb|----6-6-6-6-6-6-6-6---|   |-2-2-2-2-5-5-5-5-555-|
Db|----6-6-6-6-6-6-6-6---|   |-2-2-2-2-6-6-6-6-666-| played once
Ab|-4--4-4-4-4-4-4-4-4---|   |-0-0-0-0-6-6-6-6-666-|
Eb|----------------------|   |---------4-4-4-4-444-|
                     ^
                     |
play that three times|


   riff 0ne 
eb|----------------------|
Bb|------------------55--|
Gb|------------------66--|
Db|------------------66--|played four times
Ab|---4h6/-0-4h6/----44--|
Eb|----------------4-----|
   verse one
eb|-------------------------|
Bb|---55555555--5555---5555-|
Gb|---66666666--6666---6666-|
Db|---66666666--6666---6666-|played twice
Ab|---44444444--xxxx---xxxx-|
Eb|-------------4444-0-4444-|
   pre chorus
eb|--------------|
Bb|---------5----|
Gb|---4-----6----|
Db|---4-x8--6-x8-|played once
Ab|---2-----4----|
Eb|--------------|
 
   chorus
eb|----------------------------------------|
Bb|----------------------------------------|
Gb|--66-6-6--22-2-2-22----------4444-5555--|
Db|--66-6-6--22-2-2-22-44444444-4444-5555--|played twice
Ab|--44-4-4--00-0-0-00-44444444-2222-3333--|
Eb|--------------------22222222------------|
   verse two
eb|---------------------------------------------------------------|
Bb|---------------------------------------------------------------|
Gb|-6-6-666-66------------------4-6-6-6-6-6-6-6-6-----------------|
Db|-6-6-666-66----4-4-4-4-6-6-6-4-6-6-6-6-6-6-6-6-4-4-4-4-6-6-6-6-|played 
Ab|-4-4-444-44-54-4-4-4-4-6-6-6-2-4-4-4-4-4-4-4-4-4-4-4-4-6-6-6-6-|once
Eb|---------------2-2-2-2-4-4-4-------------------2-2-2-2-4-4-4-4-|
[ Tab from: http://www.guitaretab.com/t/this-providence/91518.html ]
 pre chorus
eb|--------------|
Bb|--------------|
Gb|---4-----5----|
Db|---4-x8--5-x8-|played once
Ab|---2-----3----|
Eb|--------------|
 
   chorus
eb|----------------------------------------|
Bb|----------------------------------------|
Gb|--66-6-6--22-2-2-22----------4444-5555--|
Db|--66-6-6--22-2-2-22-44444444-4444-5555--|played twice
Ab|--44-4-4--00-0-0-00-44444444-2222-3333--|
Eb|--------------------22222222------------|

   verse 3/bridge

eb|---9-7-7-5-5575-9999-9-7-7-5-5575--------------------|
Bb|---7-5-5-3-3353-7777-7-5-5-3-3353--------------------|
Gb|-6---------------------------------------------------|
Db|-6----------------------------------6666666666666666-|played once
Ab|-4----------------------------------6666666666666666-|
Eb|------------------------------------4444444444444444-|

eb|----------------------|
Bb|----------------------|
Gb|--9-----10-------9----|
Db|--9-x16-9-x8-----9-x8-|played twice
Ab|--7-----8--------7----|
Eb|--------9-------------|

eb|----------------------|
Bb|----------------------|
Gb|-2-----3-----4-----5~-|
Db|-2-x16-3-x16-4-x16-5~-|played once
Ab|-0-----1-----2-----3~-|
Eb|----------------------|

chorus
eb|----------------------------------------|
Bb|----------------------------------------|
Gb|--66-6-6--22-2-2-22----------4444-5555--|
Db|--66-6-6--22-2-2-22-44444444-4444-5555--|played twice
Ab|--44-4-4--00-0-0-00-44444444-2222-3333--|
Eb|--------------------22222222------------|

eb|----|
Bb|----|
Gb|-6~-|
Db|-6~-|
Ab|-4~-|
Eb|----|

outro

eb|-------------------------------------|   
Bb|-5-5-5-5-5-5-5-5-5-5-5-5-5-5-5-5-55--|  
Gb|-6-6-6-6-6-6-6-6-6-6-6-6-6-6-6-6-66~-|
Db|-6-6-6-6-6-6-6-6-6-6-6-6-6-6-6-6-66~-|
Ab|-4-4-4-4-4-4-4-4-4-4-4-4-4-4-4-4-44~-|   
Eb|-------------------------------------| 

| /  slide up
| \  slide down
| h  hammer-on
| p  pull-off
| ~  vibrato
| +  harmonic
| x  Mute note
Related for A Wolf In Sheeps Clothing tab