Song name
# A B C D E F G H I J K L M N O P Q R S T U V W X Y Z

This Providence - Contradictions tab

Help us improve GuitareTab! Take a short survey!
Tuning : 1/2 Step Down
Song : Contradictions
Band : This Providence

I didn't see any tabs for this song and I got bored so..
here's the out coming result. ;)

Eb[--0-----------4/5/4-----4/5\4---]
Bb[--------------------0---------0-]
Gb[----1-----2---------------------]
Db[------2/4---4---------4---------]
Ab[--------------------------------]
Eb[--------------------------------](x2)

Eb[-----------------------------0--------------2-------------4--]
Bb[--------0------0-------0--------------0-------------0--------]
Gb[----1h2---2p1------1h2---2p1------1h2---2p1-----1h2---2p1----]
Db[-------------------------------------------------------------]
Ab[--4--------------2--------------0-------------0--------------]
Eb[-------------------------------------------------------------](x2)


Eb[------------------------]
Bb[------------------------]
Gb[------4-----2-----------]
Db[----2-----2------2--/4--]
Ab[--4---------------------]
Eb[--------0------4---4/5--]


Chorus - Figure out Strumming Pattern on your own but here are the chords

Eb[--0--0--0--0--0--0--0--0--0--0--0--0--0--0--0--0--]
Bb[--0--0--0--0--0--0--0--0--0--0--0--0--0--0--0--0--]
Gb[--4--4--4--4--4--4--4--4--4--4--4--4--4--4--4--4--]
Db[--2--2--2--2--2--2--2--2--2--2--2--2--2--2--2--2--]
Ab[--2--2--2--2--0--0--0--0--4--4--2--2--0--0--0--0--]
Eb[--0--0--0--0--x--x--x--x--x--x--x--x--x--x--x--x--](x2)


Verse 2

Eb[--0-----------4/5/4-----4/5\4---]
Bb[--------------------0---------0-]
Gb[----1-----2---------------------]
Db[------2/4---4---------4---------]
Ab[--------------------------------]
Eb[--------------------------------](x2)

Eb[-----------------------------0--------------2-------------4--]
Bb[--------0------0-------0--------------0-------------0--------]
Gb[----1h2---2p1------1h2---2p1------1h2---2p1-----1h2---2p1----]
Db[-------------------------------------------------------------]
Ab[--4--------------2--------------0-------------0--------------]
Eb[-------------------------------------------------------------](x2)

Eb[------------------------]
Bb[------------------------]
Gb[------4-----2-----------]
Db[----2-----2------2--/4--]
Ab[--4---------------------]
Eb[--------0------4---4/5--]


Chorus


Eb[--0--0--0--0--0--0--0--0--0--0--0--0--0--0--0--0--]
Bb[--0--0--0--0--0--0--0--0--0--0--0--0--0--0--0--0--]
Gb[--4--4--4--4--4--4--4--4--4--4--4--4--4--4--4--4--]
Db[--2--2--2--2--2--2--2--2--2--2--2--2--2--2--2--2--]
Ab[--2--2--2--2--0--0--0--0--4--4--2--2--0--0--0--0--]
Eb[--0--0--0--0--x--x--x--x--x--x--x--x--x--x--x--x--](x2)



I'll Finish tomorrow
XD
Related for Contradictions tab