Song name
# A B C D E F G H I J K L M N O P Q R S T U V W X Y Z

This Providence - The Beautiful Rescue tab

----------------------------------------------------------------------------
		Face Down(Acoustic)-The Red Jumpsuit Apparatus
----------------------------------------------------------------------------
Tabbed by: Lazyboy


Tuning: Standard
Rhythm
e|-------------------------------------------------------------------------|
B|--------3-------------3--------------3--------------3--------------------|
G|------0---0---0-----0---0---0------0---0---0------0---0---0--------------|
D|----2-------2-----2-------2------2-------2------2-------2----------------|
A|---2-------------2--------------3--------------3-------------------------|
E|-------------------------------------------------------------------------|
                                                     D/F#
e|---------------------------------------------------2---------------------|
B|--------3-------------3--------------3-----3-------3---------------------|
G|------0---0---0-----0---0---0------2---2-----2-----2---------------------|
D|----0-------0-----0-------0------0-------0-----0---0---------------------|
A|---2-------------2--------------0------------------0---------------------|
E|---------------------------------------------------2---------------------|

Verse
Em7
Hey, girl, you know you drive me crazy
Csus2
one look puts the rhythm in my hand.
G
Still I'll never understand why you hang around
D/F#
I see what's going down.


Verse 2
Em7
Cover up with makeup in the mirror
Csus2
tell yourself, it's never gonna happen again
G                         D/F#
you cry alone and then he swears he loves you.


Chorus
Em7                    Csus2
Do you feel like a man when you push her around?
G                      D/F#
Do you feel better now as she falls to the ground?
Em7                           Csus2
Well I'll tell you my friend, one day this world's going to end
G                          D/F#
as your lies crumble down, a new life she has found.


Post Chorus
 Em7

DU UDU UDU UD <-Strumming pattern


Verse 3
Em7
A pebble in the water makes a ripple effect
Csus2
every action in this world will bear a consequence
G
If you wade around forever, you will surely drown
D/F#
I see what's going down.

Em7                  Csus2
I see the way you go and say you're right again,
G
say you're right again
D/F#
heed my lecture

Chorus
Em7                    Csus2
Do you feel like a man when you push her around?
G                      D/F#
Do you feel better now as she falls to the ground?
Em7                           Csus2
Well I'll tell you my friend, one day this world's going to end
G                          D/F#
as your lies crumble down, a new life she has found.


Bridge
Em7                   Csus2
Face down in the dirt, she said,
                     G
"This doesn't hurt", she said,
D/F#
"I finally had enough."
[x2]

Em7                  Csus2                G
One day she will tell you that she has had enough
D/F#
it's coming round again.


Chorus
Em7                    Csus2
Do you feel like a man when you push her around?
G                      D/F#
Do you feel better now as she falls to the ground?
Em7                           Csus2
Well I'll tell you my friend, one day this world's going to end
G                          D/F#
as your lies crumble down, a new life she has found.
[x2]


Bridge
Em7                   Csus2
Face down in the dirt, she said,
                     G
"This doesn't hurt", she said,
D/F#
"I finally had enough."


Outro
 Em7
 DU UDU UDU UD

Hey guys this my first tab. I looked at the others and thought they sounded kinda wrong 
i kinda changed it abit
Tap to rate this tab
# A B C D E F G H I J K L M N O P Q R S T U V W X Y Z