Song name
# A B C D E F G H I J K L M N O P Q R S T U V W X Y Z

This Romantic Tragedy - Among The Brave tab

                                Among The Brave                                 
                              This Romantic Tragedy
                            www.thisromantictragedy.com
           
 Not in the database! But signed to Warner Brothers Records subsidiary Tragic Hero Records.

Lead Guitar



      PM PM    PM       PM          PM        PM PM        
      E  E  E  E  E  E  E  E     E  E  E   E  E  E  E  E   
D#||--------------------------|---------------------------|
A#||--------------------------|---------------------------|
F#||--------------------------|---------------------------|
C#||--------------------------|---------------------------|
G#||--------4-----4--5-----5--|--7-----7s--4--------2--4--|
C#||--0--0-----0--------0-----|-----0---------0--0--------|


  PM PM    PM       PM          PM        PM PM        
  E  E  E  E  E  E  E  E     E  E  E   E  E  E  E  E   
--------------------------|---------------------------|
--------------------------|---------------------------|
--------------------------|---------------------------|
--------------------------|---------------------------|
--------4-----4--5-----5--|--7-----7s--4--------2--4--|
--0--0-----0--------0-----|-----0---------0--0--------|


  E  E  E  E  E  E  E  E     E  E  E   E  E  E  E  E   
--------------------------|---------------------------|
--------------------------|---------------------------|
--------------------------|---------------------------|
--------------------------|---------------------------|
--------4-----4--5-----5--|--7-----7s--4--------2--4--|
--0--0-----0--------0-----|-----0---------0--0--------|


                             PM PM    PM       PM     
  E  E  E  E  E  E  E  E     E  E  E  E  E  E  E  E   
--------------------------|--------------------------|
--------------------------|--------------------------|
--------------------------|--------------------------|
--------------------------|--------------------------|
--------4-----4--5-----5--|--------4-----4--5-----5--|
--0--0-----0--------0-----|--0--0-----0--------0-----|


  PM PM    PM       PM          PM        PM PM        
  E  E  E  E  E  E  E  E     E  E  E   E  E  E  E  E   
--------------------------|---------------------------|
--------------------------|---------------------------|
--------------------------|---------------------------|
--------------------------|---------------------------|
--------4-----4--5-----5--|--7-----7s--4--------2--4--|
--0--0-----0--------0-----|-----0---------0--0--------|


  PM PM    PM       PM          PM        PM PM        
  E  E  E  E  E  E  E  E     E  E  E   E  E  E  E  E   
--------------------------|---------------------------|
--------------------------|---------------------------|
--------------------------|---------------------------|
--------------------------|---------------------------|
--------4-----4--5-----5--|--7-----7s--4--------2--4--|
--0--0-----0--------0-----|-----0---------0--0--------|


  PM PM    PM       PM          PM        PM PM        
  E  E  E  E  E  E  E  E     E  E  E   E  E  E  E  E   
--------------------------|---------------------------|
--------------------------|---------------------------|
--------------------------|---------------------------|
--------------------------|---------------------------|
--------4-----4--5-----5--|--7-----7s--4--------2--4--|
--0--0-----0--------0-----|-----0---------0--0--------|


  PM PM    PM       PM       PM PM    PM       PM                         
  E  E  E  E  E  E  E  E     E  E  E  E  E  E  E  E     W                 
--------------------------|--------------------------|-------------------|
--------------------------|--------------------------|-------------------|
--------------------------|--------------------------|--7----------------|
--------------------------|--------------------------|-------------------|
--------4-----4--5-----5--|--------4-----4--5-----5--|--5----------------|
--0--0-----0--------0-----|--0--0-----0--------0-----|-------------------|


           PM    PM       PM PM             PM PM  
  H        E  E  E  E     E  E  E  E  E  E  E  E   
-----------------------|--------0--0--0--0--------|
-----------------------|--------6--6--6--6--------|
--L--------------------|--------9--9--9--9--------|
-----------------------|--------------------------|
--L--------0-----0-----|--0--0--------------0--0--|
-----------0-----0-----|--0--0--------------0--0--|


              PM PM PM PM PM PM    PM PM             PM PM        
  E  E  E  E  E  E  S  S  S  S     E  E  E  E  E  E  E  E         
--0--0--0--0--------------------|--------0--0--0--0--------|-----|
--6--6--6--6--------------------|--------6--6--6--6--------|-----|
--9--9--9--9--------------------|--------9--9--9--9--------|-----|
--------------------------------|--------------------------|-----|
--------------0--0--0--0--0--0--|--0--0--------------0--0--|-----|
--------------0--0--0--0--0--0--|--0--0--------------0--0--|-----|


  PM PM             PM PM                PM PM PM PM PM PM  
  E  E  E  E  E  E  E  E     E  E  E  E  E  E  S  S  S  S   
--------0--0--0--0--------|--0--0--0--0--------------------|
--------6--6--6--6--------|--6--6--6--6--------------------|
--------9--9--9--9--------|--9--9--9--9--------------------|
--------------------------|--------------------------------|
--0--0--------------0--0--|--------------0--0--0--0--0--0--|
--0--0--------------0--0--|--------------0--0--0--0--0--0--|


  PM PM             PM PM                                    
  E  E  E  E  E  E  E  E      E   E   E   E   E   E   E  E   
--------0--0--0--0--------|---------------------------------|
--------6--6--6--6--------|---------------------------------|
--------9--9--9--9--------|--10--10--10--10--10--10--10-----|
--------------------------|---------------------------------|
--0--0--------------0--0--|---8---8---8---8---8---8---8-----|
--0--0--------------0--0--|---------------------------------|


  PM PM PM               PM PM                PM PM PM PM PM PM  
  S  S  S  S E  E  E  E  E  E     E  E  E  E  E  E  S  S  S  S   
-------------0--0--0--0--------|--0--0--0--0--------------------|
-------------6--6--6--6--------|--6--6--6--6--------------------|
-------------9--9--9--9--------|--9--9--9--9--------------------|
-------------------------------|--------------------------------|
--0--0--0----------------0--0--|--------------0--0--0--0--0--0--|
--0--0--0----------------0--0--|--------------0--0--0--0--0--0--|


  PM PM             PM PM          PM PM             PM PM  
  E  E  E  E  E  E  E  E           E  E  E  E  E  E  E  E   
--------0--0--0--0--------|-----|--------0--0--0--0--------|
--------6--6--6--6--------|-----|--------6--6--6--6--------|
--------9--9--9--9--------|-----|--------9--9--9--9--------|
--------------------------|-----|--------------------------|
--0--0--------------0--0--|-----|--0--0--------------0--0--|
--0--0--------------0--0--|-----|--0--0--------------0--0--|


              PM PM PM PM PM PM    PM PM             PM PM  
  E  E  E  E  E  E  S  S  S  S     E  E  E  E  E  E  E  E   
--0--0--0--0--------------------|--------0--0--0--0--------|
--6--6--6--6--------------------|--------6--6--6--6--------|
--9--9--9--9--------------------|--------9--9--9--9--------|
--------------------------------|--------------------------|
--------------0--0--0--0--0--0--|--0--0--------------0--0--|
--------------0--0--0--0--0--0--|--0--0--------------0--0--|


   E   E   E   E   E   E   E  E     S S S S S S S S S S S S S S S S  
---------------------------------|------------L---------------------|
---------------------------------|----------------------------------|
--10--10--10--10--10--10--10-----|----------------------------------|
---------------------------------|----------------------------------|
---8---8---8---8---8---8---8-----|--0-0-0-L-L-L-0-0-0-L-L-L-0-0-0-L-|
---------------------------------|--1-1-1-----L-1-1-1-L-L-L-1-1-1-L-|


  S S S S S S S S S S S S Q       S S S S S S S S S S S S S S S S  
-------------------------------|----------------------------------|
-------------------------------|----------------------------------|
-------------------------------|----------------------------------|
-------------------------------|----------------------------------|
--L-L-0-0-0-L-L-L-L-L-0-0-0----|--0-0-0-L-L-L-0-0-0-L-L-L-0-0-0-L-|
--L-L-1-1-1-L-L-L-L-L-1-1-1----|--1-1-1-L-L-L-1-1-1-L-L-L-1-1-1-L-|


  S S S S Q    H           E  E  E  E  E  E  E  E     E  E  E  E  E  E  E  E   
------------------------|--------------------------|--------------------------|
------------------------|--------------------------|--------------------------|
------------------------|--------------------------|--------------------------|
------------------------|--8--8--8--8--8--8--8--8--|--8--8--8--8--8--8--8--8--|
--L-L-0-0-0-------------|--8--8--8--8--8--8--8--8--|--8--8--8--8--8--8--8--8--|
--L-L-1-1-1-------------|--8--8--8--8--8--8--8--8--|--8--8--8--8--8--8--8--8--|


  E  E  E  E  E  E  E  E     E  E  E  E  E  E  E  E   
--------------------------|--------------------------|
--------------------------|--------------------------|
--------------------------|--------------------------|
--8--8--8--8--8--8--8--8--|--8--8--8--8--8--8--8--8--|
--8--8--8--8--8--8--8--8--|--8--8--8--8--8--8--8--8--|
--8--8--8--8--8--8--8--8--|--8--8--8--8--8--8--8--8--|


  E   E   E  E   E   E  E   E      E  E   E   E  E   E   E   E   
-------------------------------|--------------------------------|
-------------------------------|--------------------------------|
-----10--10-----10--10-----15--|--15-----15--15-----15--15--15--|
-------------------------------|--------------------------------|
------8---8------8---8-----13--|--13-----13--13-----13--13--13--|
-------------------------------|--------------------------------|


  E   E   E  E   E   E  E   E      E  E   E   E  E   E   E   E   
-------------------------------|--------------------------------|
-------------------------------|--------------------------------|
-----14--14-----14--14-----12--|--12-----12--12-----12--12--12--|
-------------------------------|--------------------------------|
-----12--12-----12--12-----10--|--10-----10--10-----10--10--10--|
-------------------------------|--------------------------------|


  E   E   E  E   E   E  E   E      E  E   E   E  E   E   E   E   
-------------------------------|--------------------------------|
-------------------------------|--------------------------------|
-----10--10-----10--10-----15--|--15-----15--15-----15--15--15--|
-------------------------------|--------------------------------|
------8---8------8---8-----13--|--13-----13--13-----13--13--13--|
-------------------------------|--------------------------------|


  E   E   E  E   E   E  E   E      E  E   E   E  E   E   E   E   
-------------------------------|--------------------------------|
-------------------------------|--------------------------------|
-----14--14-----14--14-----12--|--12-----12--12-----12--12--12--|
-------------------------------|--------------------------------|
-----12--12-----12--12-----10--|--10-----10--10-----10--10--10--|
-------------------------------|--------------------------------|


  E   E   E  E   E   E  E   E      E  E   E   E  E   E   E   E   
-------------------------------|--------------------------------|
-------------------------------|--------------------------------|
-----10--10-----10--10-----15--|--15-----15--15-----15--15--15--|
-------------------------------|--------------------------------|
------8---8------8---8-----13--|--13-----13--13-----13--13--13--|
-------------------------------|--------------------------------|


  E   E   E  E   E   E  E   E      E  E   E   E  E   E   E   E   
-------------------------------|--------------------------------|
-------------------------------|--------------------------------|
-----14--14-----14--14-----12--|--12-----12--12-----12--12--12--|
-------------------------------|--------------------------------|
-----12--12-----12--12-----10--|--10-----10--10-----10--10--10--|
-------------------------------|--------------------------------|


  E   E   E  E   E   E  E   E      E  E   E   E  E   E   E   E   
-------------------------------|--------------------------------|
-------------------------------|--------------------------------|
-----10--10-----10--10-----15--|--15-----15--15-----15--15--15--|
-------------------------------|--------------------------------|
------8---8------8---8-----13--|--13-----13--13-----13--13--13--|
-------------------------------|--------------------------------|


  E   E   E  E   E   E  E   E      E  E   E   E  E   E   E   E         
-------------------------------|--------------------------------|-----|
-------------------------------|--------------------------------|-----|
-----14--14-----14--14-----12--|--12-----12--12-----12--12--12--|-----|
-------------------------------|--------------------------------|-----|
-----12--12-----12--12-----10--|--10-----10--10-----10--10--10--|-----|
-------------------------------|--------------------------------|-----|


  Q    E   Q    E   Q        Q    E   Q    E   Q        Q    E   Q    E   Q     
-------------------------|--------------------------|--------------------------|
----------11----L--------|-----------11----L--------|-----------10----L--------|
-------------------14----|--12----L-----------12----|--10----L-----------10----|
--0----L-----------------|--------------------------|--------------------------|
-------------------------|--------------------------|--------------------------|
-------------------------|--------------------------|--------------------------|


  Q    E  Q    E  Q       Q    E   Q    E   Q        Q    E   Q    E   Q     
-----------------------|-------------------------|--------------------------|
----------8----L-------|----------11----L--------|-----------11----L--------|
--9----L----------9----|-------------------14----|--12----L-----------12----|
-----------------------|--0----L-----------------|--------------------------|
-----------------------|-------------------------|--------------------------|
-----------------------|-------------------------|--------------------------|


   Q    E   Q    E   Q       E  E  E  E  E  E  E  E     Q    E   Q    E   Q     
--------------------------|--------x--x--------x--x--|-------------------------|
-----------10----L--------|--6--6--x--x--6--6--x--x--|----------11----L--------|
--10----L-----------10----|--9--9--x--x--9--9--x--x--|-------------------14----|
--------------------------|--------x--x--------x--x--|--0----L-----------------|
--------------------------|--------x--x--------x--x--|-------------------------|
--------------------------|--------x--x--------x--x--|-------------------------|


   Q    E   Q    E   Q        Q    E   Q    E   Q       Q    E  Q    E  Q     
--------------------------|--------------------------|-----------------------|
-----------11----L--------|-----------10----L--------|----------8----L-------|
--12----L-----------12----|--10----L-----------10----|--9----L----------9----|
--------------------------|--------------------------|-----------------------|
--------------------------|--------------------------|-----------------------|
--------------------------|--------------------------|-----------------------|


  Q    E   Q    E   Q        Q    E   Q    E   Q        Q    E   Q    E   Q     
-------------------------|--------------------------|--------------------------|
----------11----L--------|-----------11----L--------|-----------10----L--------|
-------------------14----|--12----L-----------12----|--10----L-----------10----|
--0----L-----------------|--------------------------|--------------------------|
-------------------------|--------------------------|--------------------------|
-------------------------|--------------------------|--------------------------|


  E  E  E  E  E  E  E  E      Q    E   Q    E   Q     
--------x--x--------x--x--|---0----L---0----L---0----|
--6--6--x--x--6--6--x--x--|--11----L--11----L--11----|
--9--9--x--x--9--9--x--x--|--14----L--14----L--14----|
--------x--x--------x--x--|---0----L---0----L---0----|
--------x--x--------x--x--|--------------------------|
--------x--x--------x--x--|--------------------------|


   Q    E   Q    E   Q        Q    E   Q    E   Q     
---0----L---0----L---0----|---0----L---0----L---0----|
--11----L--11----L--11----|--11----L--11----L--11----|
--14----L--14----L--14----|--14----L--14----L--14----|
---0----L---0----L---0----|---0----L---0----L---0----|
--------------------------|--------------------------|
--------------------------|--------------------------|


   Q    E   Q    E   Q        Q    E   Q    E   Q     
---0----L---0----L---0----|---0----L---0----L---0----|
--11----L--11----L--11----|--11----L--11----L--11----|
--14----L--14----L--14----|--14----L--14----L--14----|
---0----L---0----L---0----|---0----L---0----L---0----|
--------------------------|--------------------------|
--------------------------|--------------------------|


   Q    E   Q    E   Q        Q    E   Q    E   Q        E  E.  H         
---0----L---0----L---0----|---0----L---0----L---0----|---0---------------|
--11----L--11----L--11----|--11----L--11----L--11----|--11---------------|
--14----L--14----L--14----|--14----L--14----L--14----|--14---------------|
---0----L---0----L---0----|---0----L---0----L---0----|---0---------------|
--------------------------|--------------------------|-------------------|
--------------------------|--------------------------|-------------------|


  PM      PM PM PM    PM         PM PM    PM                PM PM    PM PM     
  Q    E  S  S  E  E  Q       E  E  E  E  Q    Q       Q    E  E  E  E  E  E   
---------------------------|------------------------|-------------------------|
---------------------------|------------------------|-------------------------|
---------------------------|------------------------|-------------------------|
---------------------------|------------------------|-------------------------|
--0-------0--0--0-----0----|-----0--0-----0---------|-------0--0-----0--0-----|
--0-------0--0--0-----0----|-----0--0-----0---------|-------0--0-----0--0-----|


       PM PM    PM PM       PM      PM PM PM    PM         PM PM    PM         
  Q    E  E  E  E  E  E     Q    E  S  S  E  E  Q       E  E  E  E  Q    Q     
-------------------------|---------------------------|------------------------|
-------------------------|---------------------------|------------------------|
-------------------------|---------------------------|------------------------|
-------------------------|---------------------------|------------------------|
-------0--0-----0--0-----|--0-------0--0--0-----0----|-----0--0-----0---------|
-------0--0-----0--0-----|--0-------0--0--0-----0----|-----0--0-----0---------|


       PM PM    PM PM            PM PM                                         
  Q    E  E  E  E  E  E     Q    E  E  E  E  E  E     E  E  E  E  E  E  E  E   
-------------------------|-------------------------|--------------------------|
-------------------------|-------------------------|--------------------------|
-------------------------|-------------------------|--------------------------|
-------------------------|-------------------------|--8--8--8--8--8--8--8--8--|
-------0--0-----0--0-----|-------0--0--------------|--8--8--8--8--8--8--8--8--|
-------0--0-----0--0-----|-------0--0-----0--0-----|--8--8--8--8--8--8--8--8--|


  E  E  E  E  E  E  E  E     E  E  E  E  E  E  E  E   
--------------------------|--------------------------|
--------------------------|--------------------------|
--------------------------|--------------------------|
--8--8--8--8--8--8--8--8--|--8--8--8--8--8--8--8--8--|
--8--8--8--8--8--8--8--8--|--8--8--8--8--8--8--8--8--|
--8--8--8--8--8--8--8--8--|--8--8--8--8--8--8--8--8--|


  E  E  E  E  E  E  E  E     E   E   E  E   E   E  E   E   
--------------------------|-------------------------------|
--------------------------|-------------------------------|
--------------------------|-----10--10-----10--10-----15--|
--8--8--8--8--8--8--8--8--|-------------------------------|
--8--8--8--8--8--8--8--8--|------8---8------8---8-----13--|
--8--8--8--8--8--8--8--8--|-------------------------------|


   E  E   E   E  E   E   E   E     E   E   E  E   E   E  E   E   
--------------------------------|-------------------------------|
--------------------------------|-------------------------------|
--15-----15--15-----15--15--15--|-----14--14-----14--14-----12--|
--------------------------------|-------------------------------|
--13-----13--13-----13--13--13--|-----12--12-----12--12-----10--|
--------------------------------|-------------------------------|


   E  E   E   E  E   E   E   E     E   E   E  E   E   E  E   E   
--------------------------------|-------------------------------|
--------------------------------|-------------------------------|
--12-----12--12-----12--12--12--|-----10--10-----10--10-----15--|
--------------------------------|-------------------------------|
--10-----10--10-----10--10--10--|------8---8------8---8-----13--|
--------------------------------|-------------------------------|


   E  E   E   E  E   E   E   E     E   E   E  E   E   E  E   E   
--------------------------------|-------------------------------|
--------------------------------|-------------------------------|
--15-----15--15-----15--15--15--|-----14--14-----14--14-----12--|
--------------------------------|-------------------------------|
--13-----13--13-----13--13--13--|-----12--12-----12--12-----10--|
--------------------------------|-------------------------------|


   E  E   E   E  E   E   E   E     E   E   E  E   E   E  E   E   
--------------------------------|-------------------------------|
--------------------------------|-------------------------------|
--12-----12--12-----12--12--12--|-----10--10-----10--10-----15--|
--------------------------------|-------------------------------|
--10-----10--10-----10--10--10--|------8---8------8---8-----13--|
--------------------------------|-------------------------------|


   E  E   E   E  E   E   E   E     E   E   E  E   E   E  E   E   
--------------------------------|-------------------------------|
--------------------------------|-------------------------------|
--15-----15--15-----15--15--15--|-----14--14-----14--14-----12--|
--------------------------------|-------------------------------|
--13-----13--13-----13--13--13--|-----12--12-----12--12-----10--|
--------------------------------|-------------------------------|


   E  E   E   E  E   E   E   E     E   E   E  E   E   E  E   E   
--------------------------------|-------------------------------|
--------------------------------|-------------------------------|
--12-----12--12-----12--12--12--|-----10--10-----10--10-----15--|
--------------------------------|-------------------------------|
--10-----10--10-----10--10--10--|------8---8------8---8-----13--|
--------------------------------|-------------------------------|


   E  E   E   E  E   E   E   E     E   E   E  E   E   E  E   E   
--------------------------------|-------------------------------|
--------------------------------|-------------------------------|
--15-----15--15-----15--15--15--|-----14--14-----14--14-----12--|
--------------------------------|-------------------------------|
--13-----13--13-----13--13--13--|-----12--12-----12--12-----10--|
--------------------------------|-------------------------------|


   E  E   E   E  E   E   E   E     E  E  E  E  H         
--------------------------------|-----------------------|
--------------------------------|-----------------------|
--12-----12--12-----12--12--12--|-----------------------|
--------------------------------|-----------------------|
--10-----10--10-----10--10--10--|-----------------------|
--------------------------------|--0--0--0--0-----------|


  PM PM   PM PM   PM PM   PM   PM PM   PM PM  
  S  S  S S  S  S S  S  S S  S S  S  S S  S   
---------------------------------------------|
---------------------------------------------|
---------------------------------------------|
---------------------------------------------|
--0--0----0--0----0--0----0----0--0----0--0--|
--0--0----0--0----0--0----0----0--0----0--0--|


  PM PM         PM PM PM PM PM PM          
  S  S  S S S S S  S  S  S  S  S  S S S S  
------------------------------------------|
------------------------------------------|
------------------------------------------|
------------------------------------------|
--0--0--5-8-4-7-0--0--0--0--0--0--5-----8-|
--0--0----------0--0--0--0--0--0----8-5---|


  PM PM   PM PM   PM PM   PM   PM PM   PM PM  
  S  S  S S  S  S S  S  S S  S S  S  S S  S   
---------------------------------------------|
---------------------------------------------|
---------------------------------------------|
---------------------------------------------|
--0--0----0--0----0--0----0----0--0----0--0--|
--0--0----0--0----0--0----0----0--0----0--0--|


  PM PM         PM PM PM PM PM PM          
  S  S  S S S S S  S  S  S  S  S  S S S S  
------------------------------------------|
------------------------------------------|
------------------------------------------|
--------------------------------------x-x-|
--0--0----------0--0--0--0--0--0------x-x-|
--0--0----------0--0--0--0--0--0------x-x-|


  PM PM   PM PM   PM PM   PM   PM PM   PM PM  
  S  S  S S  S  S S  S  S S  S S  S  S S  S   
---------------------------------------------|
---------------------------------------------|
---------------------------------------------|
---------------------------------------------|
--0--0----0--0----0--0----0----0--0----0--0--|
--0--0----0--0----0--0----0----0--0----0--0--|


  PM PM         PM PM PM PM PM PM          
  S  S  S S S S S  S  S  S  S  S  S S S S  
------------------------------------------|
------------------------------------------|
------------------------------------------|
------------------------------------------|
--0--0--5-8-4-7-0--0--0--0--0--0--5-----8-|
--0--0----------0--0--0--0--0--0----8-5---|


  PM PM   PM PM   PM PM   PM   PM PM   PM PM  
  S  S  S S  S  S S  S  S S  S S  S  S S  S   
---------------------------------------------|
---------------------------------------------|
---------------------------------------------|
---------------------------------------------|
--0--0----0--0----0--0----0----0--0----0--0--|
--0--0----0--0----0--0----0----0--0----0--0--|


  PM PM         PM PM PM PM PM PM                              
  S  S  S S S S S  S  S  S  S  S  S S S S    W                 
------------------------------------------|-------------------|
------------------------------------------|-------------------|
------------------------------------------|-------------------|
--------------------------------------x-x-|--0----------------|
--0--0----------0--0--0--0--0--0------x-x-|--0----------------|
--0--0----------0--0--0--0--0--0------x-x-|--0----------------|


  W                   W                   W                 
-------------------|-------------------|-------------------|
-------------------|-------------------|-------------------|
-------------------|-------------------|-------------------|
--L----------------|--L----------------|--L----------------|
--L----------------|--L----------------|--L----------------|
--L----------------|--L----------------|--L----------------|


  TP                                                         
  W                    W                   W                 
--x\----------------|--L----------------|--L----------------|
--x\----------------|--L----------------|--L----------------|
--x\----------------|--L----------------|--L----------------|
--x\----------------|--L----------------|--L----------------|
--x\----------------|--L----------------|--L----------------|
--x\----------------|--L----------------|--L----------------|


  H        H           S S S S S S S S S S S S S S S S  
--L-----------------|----------------------------------|
--L-----------------|----------------------------------|
--L-----------------|----------------------------------|
--L-----------------|----------------------------------|
--L-----------------|--0-0---0-0---0-0---0---0-0---0-0-|
--L-----------------|--0-0---0-0---0-0---0---0-0---0-0-|


  S S S S S S S S S S S S S S S S    S S S S S S S S S S S S S S S S  
----------------------------------|----------------------------------|
----------------------------------|----------------------------------|
----------------------------------|----------------------------------|
----------------------------------|----------------------------------|
--0-0---------0-0-0-0-0-0---------|--0-0---0-0---0-0---0---0-0---0-0-|
--0-0---------0-0-0-0-0-0---------|--0-0---0-0---0-0---0---0-0---0-0-|


  S S S S S S S S S S S S S S S S    S S S S S S S S S S S S S S S S  
----------------------------------|----------------------------------|
----------------------------------|----------------------------------|
----------------------------------|----------------------------------|
----------------------------------|----------------------------------|
--0-0---------0-0-0-0-0-0---------|--0-0---0-0---0-0---0---0-0---0-0-|
--0-0---------0-0-0-0-0-0---------|--0-0---0-0---0-0---0---0-0---0-0-|


  S S S S S S S S S S S S S S S S    S S S S S S S S S S S S S S S S  
----------------------------------|----------------------------------|
----------------------------------|----------------------------------|
----------------------------------|----------------------------------|
----------------------------------|----------------------------------|
--0-0---------0-0-0-0-0-0---------|--0-0---0-0---0-0---0---0-0---0-0-|
--0-0---------0-0-0-0-0-0---------|--0-0---0-0---0-0---0---0-0---0-0-|


  S S S S S S S S S S S S S S S S    E  E   E   E   E    E    E    E    
----------------------------------|--5-----(5)-----(5)-------(5)-------|
----------------------------------|---------------------------6--------|
----------------------------------|-------------7-------(7)-------(7)--|
----------------------------------|------------------------------------|
--0-0---------0-0-0-0-0-0---------|------------------------------------|
--0-0---------0-0-0-0-0-0---------|------------------------------------|


   E   E  E  E   E    E   E   E      E   E    E    E    E    E    E    E    
-----------------5--------3-------|--5-------(5)-------(5)-------(5)-------|
--(6)-----6-----(6)---6-------6---|-----(6)-------(6)-------------6--------|
-------7-----7-------(7)-----(7)--|-----(7)--------7--------(7)-------(7)--|
----------------------------------|----------------------------------------|
----------------------------------|----------------------------------------|
----------------------------------|----------------------------------------|


   E   E  E  E   E    E   E   E      E  E   E   E   E    E    E    E    
-----------------5--------3-------|--5-----(5)-----(5)-------(5)-------|
--(6)-----6-----(6)---6-------6---|---------------------------6--------|
-------7-----7-------(7)-----(7)--|-------------7-------(7)-------(7)--|
----------------------------------|------------------------------------|
----------------------------------|------------------------------------|
----------------------------------|------------------------------------|


   E   E  E  E   E    E   E   E      E   E    E    E    E    E    E    E    
-----------------5--------3-------|--5-------(5)-------(5)-------(5)-------|
--(6)-----6-----(6)---6-------6---|-----(6)-------(6)-------------6--------|
-------7-----7-------(7)-----(7)--|-----(7)--------7--------(7)-------(7)--|
----------------------------------|----------------------------------------|
----------------------------------|----------------------------------------|
----------------------------------|----------------------------------------|


   E   E  E  E   E    E   E   E       E    E    E    E    E    E    E    E    
-----------------5--------3-------|--(3)-------(3)-------(3)-------(3)-------|
--(6)-----6-----(6)---6-------6---|-------(6)-------(6)-------(6)-------(6)--|
-------7-----7-------(7)-----(7)--|-------(7)-------(7)-------(7)------------|
----------------------------------|------------------------------------------|
----------------------------------|------------------------------------------|
----------------------------------|------------------------------------------|


                                                             TH   
  E  S S S E  S E  S E  S S S    E  S S S E  S E   E   E     E    
------------------------------|----------------------------------|
------------------------------|----------------------------------|
------------------------------|----------------------------------|
------------------------------|----------------------------------|
--0--0-0-0-0--0-0--0-0--0-0-0-|--0--0-0-0-0--0-5~----------<>8~--|
--1--1-1-1-1--1-1--1-1--1-1-1-|--1--1-1-1-1--1-----8~--5~--------|


  E  S S S E  S E  S E  S S S    E  S S S E  S H         
------------------------------|-------------------------|
------------------------------|-------------------------|
------------------------------|-------------------------|
------------------------------|-------------------------|
--0--0-0-0-0--0-0--0-0--0-0-0-|--0--0-0-0-0--0----------|
--1--1-1-1-1--1-1--1-1--1-1-1-|--1--1-1-1-1--1----------|


   E   E   E   E   E   E   E   E      E   E   E   E   E   E   E   E   
------18------18------18------18--|------18------18------18------18--|
--22------22------22------22------|--22------22------22------22------|
----------------------------------|----------------------------------|
----------------------------------|----------------------------------|
----------------------------------|----------------------------------|
----------------------------------|----------------------------------|


   E   E   E   E   E   E   E   E      E   E   E   E  H         
------18------18------18------18--|------18------18-----------|
--22------22------22------22------|--22------22---------------|
----------------------------------|---------------------------|
----------------------------------|---------------------------|
----------------------------------|---------------------------|
----------------------------------|---------------------------|


  W                        
-------------------|-----||
-------------------|-----||
-------------------|-----||
-------------------|-----||
--0----------------|-----||
--0----------------|-----||




Duration Legend
---------------
W - whole
H - half
Q - quarter
E - 8th
S - 16th
T - 32nd
X - 64th
. - note dotted
|-n-|  - n-tuplets


Tablature Legend
----------------
L - tied note
x - dead note
g - grace note
(n) - ghost note
> - accentuded note
NH - natural harmonic
AH - artificial harmonic
TH - tapped harmonic
SH - semi harmonic
PH - pitch harmonic
h - hammer on
p - pull off
b - bend
br - bendRelease
pb - preBend
pbr - preBendRelease
brb - bendReleaseBend
\n/ - tremolo bar dip
\n - tremolo bar dive
-/n - tremolo bar Release up
/n\ - tremolo bar inverted dip
/n - tremolo bar return
-\n - tremolo bar Release down
S - shift slide
s - legato slide
/ -  slide into from below or out of upwards
\ -  slide into from above or out of downwards
~ - vibrato
W - wide vibrato
tr - trill
TP - tremolo picking
T - tapping
S - slap
P - pop
< - fade in
^ - brush up
v - brush down
Tap to rate this tab
 
# A B C D E F G H I J K L M N O P Q R S T U V W X Y Z