This Romantic Tragedy - Among The Brave tab

Among The Brave                                 
This Romantic Tragedy
Reborn (2011)

www.thisromantictragedy.com
This is a guitar tab for both guitars for This Romantic Tragedy's new single Among 
The Brave off of their new album Reborn that comes out May 10th, 2011!

Guitar 1 - Drop C# (C#G#C#F#A#D#)
Guitar 2 - Drop C# (C#G#C#F#A#D#)


KEY -
x = Mute String
. = Palm Mute Note
/ = Slide Up
\ = Slide down
~ = let note ring




[INTRO]===========================================================================

- GUITAR 1
     				        (PLAY THIS THE LAST TIME)
D#|----------------------------------|  |---------------------------------|
A#|----------------------------------|  |---------------------------------|
F#|----------------------------------|	|---------------------------------|
C#|----------------------------------|	|---------------------------------|
G#|-----4---4-5---5/7----7\4-----2-4-|	|-----4---4-5---4-----4---4-5---4-|
C#|-0-0---0-----0-----0------0-0-----|x3|-0-0---0-----0---0-0---0-----0---|
    . .   .     .     .      . .          . .   .     .   . .   .     .
(REPEAT THIS ENTIRE PART TWICE!)




- GUITAR 2

D#|-----------------|-----------------|-----------------|-----------------|
A#|-----------------|-----------------|-----------------|-----------------|
F#|-7-7-7-7-7-7-7-7-|-7-7-7-7-7-7-7-7-|-----------------|-----------------|
C#|-7-7-7-7-7-7-7-7-|-7-7-7-7-7-7-7-7-|-4-4-4-4-4-4-4-4-|-4-4-4-4-4-4-4-4-|
G#|-5-5-5-5-5-5-5-5-|-5-5-5-5-5-5-5-5-|-4-4-4-4-4-4-4-4-|-4-4-4-4-4-4-4-4-|
C#|-----------------|-----------------|-4-4-4-4-4-4-4-4-|-4-4-4-4-4-4-4-4-|

D#|-----------------|-----------------|-----------------|-----------------|
A#|-----------------|-----------------|-----------------|-----------------|
F#|-----------------|-----------------|-4-4-4-4-4-4-4-4-|-4-4-4-4-4-4-4-4-|
C#|-7-7-7-7-7-7-7-7-|-7-7-7-7-7-7-7-7-|-4-4-4-4-4-4-4-4-|-4-4-4-4-4-4-4-4-|
G#|-7-7-7-7-7-7-7-7-|-7-7-7-7-7-7-7-7-|-2-2-2-2-2-2-2-2-|-2-2-2-2-2-2-2-2-|
C#|-7-7-7-7-7-7-7-7-|-7-7-7-7-7-7-7-7-|-----------------|-----------------|


D#|-----------------|-----------------|-----------------|-----------------|
A#|-----------------|-----------------|-----------------|-----------------|
F#|-7-7-7---7-7-7---|-7-7-7---7-7-7---|-----------------|-----------------|
C#|-7-7-7---7-7-7---|-7-7-7---7-7-7---|-4-4-4---4-4-4---|-4-4-4---4-4-4---|
G#|-5-5-5---5-5-5---|-5-5-5---5-5-5---|-4-4-4---4-4-4---|-4-4-4---4-4-4---|
C#|-----------------|-----------------|-4-4-4---4-4-4---|-4-4-4---4-4-4---|

D#|-----------------|-----------------|-----------------|-----------------|
A#|-----------------|-----------------|-----------------|-----------------|
F#|-----------------|-----------------|-4-4-4-4-4-4-4-4-|-4-4-4-4-4-4-4-4-|
C#|-7-7-7-7-7-7-7-7-|-7-7-7-7-7-7-7-7-|-4-4-4-4-4-4-4-4-|-4-4-4-4-4-4-4-4-|
G#|-7-7-7-7-7-7-7-7-|-7-7-7-7-7-7-7-7-|-2-2-2-2-2-2-2-2-|-2-2-2-2-2-2-2-2-|
C#|-7-7-7-7-7-7-7-7-|-7-7-7-7-7-7-7-7-|-----------------|-----------------|





[FILL]============================================================================

-GUITAR 1

D#|-----------------|-----------------|
A#|-----------------|-----------------|
F#|-7~~~~~~~~~~~~~~~|~~~~~~~~---------|
C#|-x---------------|---------0---0---|
G#|-5~~~~~~~~~~~~~~~|~~~~~~~~-0---0---|
C#|-----------------|---------0---0---|



-GUITAR 2

D#|-----------------|-----------------|
A#|-----------------|-----------------|
F#|-----------------|-----------------|
C#|-0~~~~~~~~~~~~~~~|~~~~~~~~-0---0---|
G#|-0~~~~~~~~~~~~~~~|~~~~~~~~-0---0---|
C#|-0~~~~~~~~~~~~~~~|~~~~~~~~-0---0---|








[BREAKDOWN]=================================================================

-GUITAR 1

D#|-----0-0-0-0-----|-0-0-0-0---------|-----0-0-0-0-----|-----------------|
A#|-----6-6-6-6-----|-6-6-6-6---------|-----6-6-6-6-----|-----------------|
F#|-----9-9-9-9-----|-9-9-9-9---------|-----9-9-9-9-----|-----------------|
C#|-----------------|-----------------|-----------------|------REST-------|
G#|-0-0---------0-0-|---------0-0-0000|-0-0---------0-0-|-----------------|
C#|-0-0---------0-0-|---------0-0-0000|-0-0---------0-0-|-----------------|
    . .         . .           . . ....  . .         . . 


D#|-----0-0-0-0-----|-0-0-0-0---------|-----0-0-0-0-----|-------------------------|
A#|-----6-6-6-6-----|-6-6-6-6---------|-----6-6-6-6-----|-------------------------|
F#|-----9-9-9-9-----|-9-9-9-9---------|-----9-9-9-9-----|-14-14-14-14-14-14-14-14-|
C#|-----------------|-----------------|-----------------|-x--x--x--x--x--x--x--x--|
G#|-0-0---------0-0-|---------0-0-0000|-0-0---------0-0-|-12-12-12-12-12-12-12-12-|
C#|-0-0---------0-0-|---------0-0-0000|-0-0---------0-0-|-------------------------|
    . .         . .           . . ....  . .         . . 



ABOUT THE SAME AS ABOVE, JUST A LITTLE DIFFERENT!
D#|-----0-0-0-0-----|-0-0-0-0---------|-----0-0-0-0-----|-----------------|
A#|-----6-6-6-6-----|-6-6-6-6---------|-----6-6-6-6-----|-----------------|
F#|-----9-9-9-9-----|-9-9-9-9---------|-----9-9-9-9-----|-----------------|
C#|-----------------|-----------------|-----------------|------REST-------|
G#|-000---------0-0-|---------0-0-0000|-0-0---------0-0-|-----------------|
C#|-000---------0-0-|---------0-0-0000|-0-0---------0-0-|-----------------|
    ...         . .           . . ....  . .         . . 


D#|-----0-0-0-0-----|-0-0-0-0---------|-----0-0-0-0-----|-------------------------|
A#|-----6-6-6-6-----|-6-6-6-6---------|-----6-6-6-6-----|-------------------------|
F#|-----9-9-9-9-----|-9-9-9-9---------|-----9-9-9-9-----|-14----14----14----14----|
C#|-----------------|-----------------|-----------------|-x-----x-----x-----x-----|
G#|-0-0---------0-0-|---------0-0-0000|-0-0---------0-0-|-12----12----12----12----|
C#|-0-0---------0-0-|---------0-0-0000|-0-0---------0-0-|-------------------------|
    . .         . .           . . ....  . .         . . 




-GUITAR 2

D#|-----------------|-----------------|-----------------|-----------------|
A#|-----3-3-3-3-----|-3-3-3-3---------|-----3-3-3-3-----|-----------------|
F#|-----6-6-6-6-----|-6-6-6-6---------|-----6-6-6-6-----|-----------------|
C#|-----------------|-----------------|-----------------|------REST-------|
G#|-0-0---------0-0-|---------0-0-0000|-0-0---------0-0-|-----------------|
C#|-0-0---------0-0-|---------0-0-0000|-0-0---------0-0-|-----------------|
    . .         . .           . . ....  . .         . . 


D#|-----------------|-----------------|-----------------|-------------------------|
A#|-----3-3-3-3-----|-3-3-3-3---------|-----3-3-3-3-----|-------------------------|
F#|-----6-6-6-6-----|-6-6-6-6---------|-----6-6-6-6-----|-10-10-10-10-10-10-10-10-|
C#|-----------------|-----------------|-----------------|-x--x--x--x--x--x--x--x--|
G#|-0-0---------0-0-|---------0-0-0000|-0-0---------0-0-|-8--8--8--8--8--8--8--8--|
C#|-0-0---------0-0-|---------0-0-0000|-0-0---------0-0-|-------------------------|
    . .         . .           . . ....  . .         . . 



ABOUT THE SAME AS ABOVE, JUST A LITTLE DIFFERENT!
D#|-----------------|-----------------|-----------------|-----------------|
A#|-----3-3-3-3-----|-3-3-3-3---------|-----3-3-3-3-----|-----------------|
F#|-----6-6-6-6-----|-6-6-6-6---------|-----6-6-6-6-----|-----------------|
C#|-----------------|-----------------|-----------------|------REST-------|
G#|-0-0---------0-0-|---------0-0-0000|-0-0---------0-0-|-----------------|
C#|-0-0---------0-0-|---------0-0-0000|-0-0---------0-0-|-----------------|
    . .         . .           . . ....  . .         . . 


D#|-----------------|-----------------|-----------------|-------------------------|
A#|-----3-3-3-3-----|-3-3-3-3---------|-----3-3-3-3-----|-------------------------|
F#|-----6-6-6-6-----|-6-6-6-6---------|-----6-6-6-6-----|-10----10----10----10----|
C#|-----------------|-----------------|-----------------|-x-----x-----x-----x-----|
G#|-0-0---------0-0-|---------0-0-0000|-0-0---------0-0-|-8-----8-----8-----8-----|
C#|-0-0---------0-0-|---------0-0-0000|-0-0---------0-0-|-------------------------|
    . .         . .           . . ....  . .         . . 








[PRE-CHORUS]======================================================================

-GUITAR 1

D#|-----------------|------------------|-----------------|------------------|
A#|-----------------|------------------|-----------------|------------------|
F#|-----------------|------------------|-----------------|------------------|
C#|-----------------|------------------|-----------------|------------------|
G#|-000~~~000~~~000~|~~000~~~~~~000~~~~|~000~~~000~~~000~|~~000-------------|
C#|-111~~~111~~~111~|~~111~~~~~~111~~~~|~111~~~111~~~111~|~~111-------------|
    ...   ...   ...    ...      ...      ...   ...   ...    ...



-GUITAR 2

D#|-0-0-0-0-0-0-0-0-|-0-0-0-0-0-0-0-0-|-0-0-0-0-0-0-0-0-|-0---------------|
A#|-6-6-6-6-6-6-6-6-|-6-6-6-6-6-6-6-6-|-6-6-6-6-6-6-6-6-|-6---------------|
F#|-8-8-8-8-8-8-8-8-|-8-8-8-8-8-8-8-8-|-8-8-8-8-8-8-8-8-|-8---------------|
C#|-----------------|-----------------|-----------------|-----------------|
G#|-----------------|-----------------|-----------------|-----------------|
C#|-----------------|-----------------|-----------------|-----------------|



-GUITAR 1			- GUITAR 2

D#|-----------------|		D#|------------------------|
A#|-----------------|		A#|-10---------------------|
F#|-----------------|		F#|----91012---------10-12-|
C#|-8-8-8-8-8-8-8-8-|		C#|----------0-10-12-------|
G#|-8-8-8-8-8-8-8-8-|		G#|------------------------|
C#|-8-8-8-8-8-8-8-8-|x4		C#|------------------------|x4 








[CHORUS]====================================================================


-GUITAR 1

D#|--------------------|-----------------------|
A#|--------------------|-----------------------|
F#|---10-10--10-10--15-|-15---15-15---15-15-15-|
C#|---X--X---X--X---X--|-X----X--X----X--X--X--|
G#|---8--8---8--8---13-|-13---13-13---13-13-13-|
C#|--------------------|-----------------------|


D#|--------------------|-----------------------|
A#|--------------------|-----------------------|
F#|---14-14--14-14--12-|-12---12-12---12-12-12-|
C#|---X--X---X--X---X--|-X----X--X----X--X--X--|
G#|---12-12--12-12--10-|-10---10-10---10-10-10-|
C#|--------------------|-----------------------|X4




-GUITAR 2
D#|-----------------|-----------------|-----------------|-----------------|
A#|-----------------|-----------------|-----------------|-----------------|
F#|---7-7---7-7-----|-----------------|-----------------|-----------------|
C#|---7-7---7-7---8-|-8---8-8---8-8-8-|---7-7---7-7---8-|-8---8-8---8-8-8-|
G#|---5-5---5-5---5-|-5---5-5---5-5-5-|---3-3---3-3---5-|-5---5-5---5-5-5-|
C#|---------------5-|-5---5-5---5-5-5-|---3-3---3-3---5-|-5---5-5---5-5-5-|x4









[BRIDGE PT.1]======================================================================

-GUITAR 1 (With Delay)

D#|-----------------|------------------|------------------|----------------|
A#|------11~--------|-------11~--------|-------10~--------|------8~--------|
F#|------------14~--|-12~---------12~--|-10~---------10~--|-9~--------9~---|
C#|-0~--------------|------------------|------------------|----------------|
G#|-----------------|------------------|------------------|----------------|
C#|-----------------|------------------|------------------|----------------|

D#|-----------------|------------------|------------------|-----X-X-----X-X-|
A#|------11~--------|-------11~--------|-------10~--------|-6-6-X-X-6-6-X-X-|
F#|------------14~--|-12~---------12~--|-10~---------10~--|-9-9-X-X-9-9-X-X-|
C#|-0~--------------|------------------|------------------|-----X-X-----X-X-|
G#|-----------------|------------------|------------------|-----X-X-----X-X-|
C#|-----------------|------------------|------------------|-----X-X-----X-X-|(REPEAT TWICE)



-GUITAR 2
D#|---------------|---------------|-----------------|---------------|
A#|---------------|---------------|-----------------|---------------|
F#|---------------|---------------|-----------------|---------------|
C#|-0~---0~---0~--|-8~---5~---7~--|---3~----3~------|-5~---5~---5~--|
G#|-0~---0~---0~--|-8~---5~---7~--|---3~----3~------|-5~---5~---5~--|
C#|-0~---0~---0~--|-8~---5~---7~--|---3~----3~------|-5~---5~---5~--|

D#|---------------|---------------|-----------------|-----------------|
A#|---------------|---------------|-----------------|-----------------|
F#|---------------|---------------|-----------------|-----------------|
C#|-0~---0~---0~--|-8~---5~---7~--|---3~----3~------|-5-5-X-X-5-5-X-X-|
G#|-0~---0~---0~--|-8~---5~---7~--|---3~----3~------|-5-5-X-X-5-5-X-X-|
C#|-0~---0~---0~--|-8~---5~---7~--|---3~----3~------|-5-5-X-X-5-5-X-X-|(REPEAT TWICE)






[BRIDGE PT.2]======================================================================

-GUITAR 1

D#|-0-----0-----0---|-0-----0-----0---|-0-----0-----0---|-0-----0-----0---|
A#|-11----11----11--|-11----11----11--|-11----11----11--|-11----11----11--|
F#|-14----14----14--|-14----14----14--|-14----14----14--|-14----14----14--|
C#|-0-----0-----0---|-0-----0-----0---|-0-----0-----0---|-0-----0-----0---|
G#|-----------------|-----------------|-----------------|-----------------|
C#|-----------------|-----------------|-----------------|-----------------|

D#|-0-----0-----0---|-0-----0-----0---|-0-----0-----0---|-----------------|
A#|-11----11----11--|-11----11----11--|-11----11----11--|-----------------|
F#|-14----14----14--|-14----14----14--|-14----14----14--|-------REST------|
C#|-0-----0-----0---|-0-----0-----0---|-0-----0-----0---|-----------------|
G#|-----------------|-----------------|-----------------|-----------------|
C#|-----------------|-----------------|-----------------|-----------------|




-GUITAR 2
D#|---------------|-----------------|-----------------|-----------------|
A#|---------------|-----------------|-----------------|-----------------|
F#|---------------|-----------------|-----------------|-----------------|
C#|---------------|-----------------|-----------------|-----------------|
G#|-0---000---0---|---0-0---0-------|-----0-0---0-0---|-----0-0---0-0---|
C#|-0---000---0---|---0-0---0-------|-----0-0---0-0---|-----0-0---0-0---|(PLAY TWICE)
    .   ...   .       . .   .             . .   . .         . .   . .   
D#|-----------------|
A#|-------------5---|
F#|-------------5---|
C#|-------------5---|
G#|-----0-0---0-----|
C#|-----0-0---0-----|(VERY LAST TIME)
        . .   . *








[BREAKDOWN]============================================================

- GUITAR 1
D#|---------------|-----------------|-----------------|-----------------|
A#|---------------|-----------------|-----------------|-----------------|
F#|---------------|-----------------|-----------------|-----------------|
C#|---------------|-----------------|-----------------|-----------------|
G#|-0---000---0---|---0-0---0-------|-----0-0---0-0---|-----0-0---0-0---|
C#|-0---000---0---|---0-0---0-------|-----0-0---0-0---|-----0-0---0-0---|(PLAY TWICE)


- GUITAR 2
D#|---------------|-----------------|-----------------|-----------------|
A#|---------------|-----------------|-----------------|-----------------|
F#|---------------|-----------------|-----------------|-----------------|
C#|---------------|-----------------|-----------------|-----------------|
G#|-0---000---0---|---0-0---0-------|-----0-0---0-0---|-----0-0---0-0---|
C#|-0---000---0---|---0-0---0-------|-----0-0---0-0---|-----0-0---0-0---|(PLAY TWICE)









[CHORUS]==================================================================


-GUITAR 1			- GUITAR 2

D#|-----------------|		D#|------------------------|
A#|-----------------|		A#|-10---------------------|
F#|-----------------|		F#|----91012---------10-12-|
C#|-8-8-8-8-8-8-8-8-|		C#|----------0-10-12-------|
G#|-8-8-8-8-8-8-8-8-|		G#|------------------------|
C#|-8-8-8-8-8-8-8-8-|x4		C#|------------------------|x4 


-GUITAR 1

D#|--------------------|-----------------------|
A#|--------------------|-----------------------|
F#|---10-10--10-10--15-|-15---15-15---15-15-15-|
C#|---X--X---X--X---X--|-X----X--X----X--X--X--|
G#|---8--8---8--8---13-|-13---13-13---13-13-13-|
C#|--------------------|-----------------------|


D#|--------------------|-----------------------|
A#|--------------------|-----------------------|
F#|---14-14--14-14--12-|-12---12-12---12-12-12-|
C#|---X--X---X--X---X--|-X----X--X----X--X--X--|
G#|---12-12--12-12--10-|-10---10-10---10-10-10-|
C#|--------------------|-----------------------|X4




-GUITAR 2
D#|-----------------|-----------------|-----------------|-----------------|
A#|-----------------|-----------------|-----------------|-----------------|
F#|---7-7---7-7-----|-----------------|-----------------|-----------------|
C#|---7-7---7-7---8-|-8---8-8---8-8-8-|---7-7---7-7---8-|-8---8-8---8-8-8-|
G#|---5-5---5-5---5-|-5---5-5---5-5-5-|---3-3---3-3---5-|-5---5-5---5-5-5-|
C#|---------------5-|-5---5-5---5-5-5-|---3-3---3-3---5-|-5---5-5---5-5-5-|x4








[BREAKDOWN 3]==========================================================================
TEMPO SLOWS DOWN

-GUITAR 1
D#|-----------------|
A#|-----------------|
F#|-----------------|
C#|-----------REST--|
G#|-----------------|
C#|-0-0-0-0---------|


-GUITAR 1
D#|----------------------------|------------------------------|
A#|----------------------------|------------------------------|
F#|----------------------------|------------------------------|
C#|----------------------------|------------------------------|
G#|-0-0---0-0---000--0-0---0-0-|-0-0-8-12-7-10-000000-8-5-----|
C#|-0-0---0-0---000--0-0---0-0-|-0-0-----------000000-----8-5-|x2

-GUITAR 2
D#|----------------------------|------------------------------|
A#|----------------------------|------------------------------|
F#|----------------------------|------------------------------|
C#|----------------------------|------------------------------|
G#|-0-0---0-0---000--0-0---0-0-|-0-0-5--8-4--7-000000-5-----8-|
C#|-0-0---0-0---000--0-0---0-0-|-0-0-----------000000---8-5---|x2




[BRIDGE]===================================================================

-GUITAR 1 & 2

D#|-----------------|-----------------|-----------------|-----------------|
A#|-----------------|-----------------|-----------------|-----------------|
F#|-----------------|-----------------|-----------------|-----------------|
C#|-0~~~~~~~~~~~~~~~|~~~~~~~~~~~~~~~~~|~~~~~~~~~~~~~~~~~|~~~~~~~~~~~~~~~~~|
G#|-0~~~~~~~~~~~~~~~|~~~~~~~~~~~~~~~~~|~~~~~~~~~~~~~~~~~|~~~~~~~~~~~~~~~~~|
C#|-0~~~~~~~~~~~~~~~|~~~~~~~~~~~~~~~~~|~~~~~~~~~~~~~~~~~|~~~~~~~~~~~~~~~~~|


-GUITAR 1
D#|-X/--------------|
A#|-X/--------------|
F#|-X/-----PICK-----|
C#|-X/-----SLIDE----|
G#|-X/-----uP-------|
C#|-X/--------------|


-GUITAR 2
D#|-----------------|-----------------|-----------------|-----------------|
A#|-----------------|-----------------|-----------------|-----------------|
F#|-----------------|-----------------|-----------------|-----------------|
C#|-----------------|-----------------|-----------------|-----------------|
G#|-----------------|-----------------|-----------------|-----------------|
C#|-8~-8~-8~8~-8~-8-|---0~0---3~-3~-3-|-8~-8~-8~8~-8~-8-|-5~-5~-5~0--0--0-|






[ENDING VERSE]=====================================================================

-BOTH GUITAR 1 & 2
D#|----------------------------|------------------------------|
A#|----------------------------|------------------------------|
F#|----------------------------|------------------------------|
C#|----------------------------|------------------------------|
G#|-0-0---0-0---000--0-0---0-0-|-0-0-----------000000---------|
C#|-0-0---0-0---000--0-0---0-0-|-0-0-----------000000---------|x2







[SOFT PART]============================================================================

-GUITAR 1 (With clean delay)

D#|-5---5-------6---|---------5---3---|   |------------|
A#|-----------------|-----6-----6---6-|   |------------|
F#|-------7---7-----|---7---7---------|   |----REST----|
C#|-----------------|-----------------|   |------------|
G#|-----------------|-----------------|   |------------|
C#|-----------------|-----------------|x4 |------------|



-GUITAR 2 (With clean delay)

D#|-------8----------|------------------|   |------------|
A#|---6-----10-6/8~--|---------10-------|   |------------|
F#|-7---7------------|------------------|   |----REST----|
C#|------------------|------------------|   |------------|
G#|------------------|------------------|   |------------|
C#|------------------|------------------|x4 |------------|









[FINAL BREAKDOWN]=================================================================

-BOTH GUITAR 1 & 2

D#|---------------------------------|-------------------------|
A#|---------------------------------|-------------------------|
F#|---------------------------------|-------------------------|
C#|---------------------------------|-------------------------|
G#|-0~--0-0-0-0---0-0---0-0---0-0-0-|-0~--0-0-0-0---0-5-----8-|
C#|-1~--1-1-1-1---1-1---1-1---1-1-1-|-1~--1-1-1-1---1---8-5---|
    .   . . . .   . .   . .   . . .   .   . . . .   .  
D#|---------------------------------|-------------------------|
A#|---------------------------------|-------------------------|
F#|---------------------------------|-------------------------|
C#|---------------------------------|-------------------------|
G#|-0~--0-0-0-0---0-0---0-0---0-0-0-|-0~--0-0-0-0---0---------|
C#|-1~--1-1-1-1---1-1---1-1---1-1-1-|-1~--1-1-1-1---1---------|
    .   . . . .   . .   . .   . . .   .   . . . .   .
GUITAR 2 REPEATS THIS ONE MORE TIME, GUITAR 1 PLAYS PART BELOW




-GUITAR 1
D#|----18----18----18----18-|----18----18----18----18-|
A#|-22----22----22----22----|-22----22----22----22----|
F#|-------------------------|-------------------------|
C#|-------------------------|-------------------------|
G#|-------------------------|-------------------------|
C#|-------------------------|-------------------------|

D#|----18----18----18----18-|----18----18-------------|
A#|-22----22----22----22----|-22----22----------------|
F#|-------------------------|-------------------------|
C#|-------------------------|-------------------------|
G#|-------------------------|-------------------------|
C#|-------------------------|-------------------------|



-GUITAR 1 & 2

D#|-----------------|-----------------|-----------------|-----------------|
A#|-----------------|-----------------|-----------------|-----------------|
F#|-----------------|-----------------|-----------------|-----------------|
C#|-----------------|-----------------|-----------------|-----------------|
G#|-0~~~~~~~~~~~~~~~|~~~~~~~~~~~~~~~~~|~~~~~~~~~~~~~~~~~|~~~~~~~~~~~~~~~~~|
C#|-0~~~~~~~~~~~~~~~|~~~~~~~~~~~~~~~~~|~~~~~~~~~~~~~~~~~|~~~~~~~~~~~~~~~~~|
    .
Tap to rate this tab
 
# A B C D E F G H I J K L M N O P Q R S T U V W X Y Z