Song name
# A B C D E F G H I J K L M N O P Q R S T U V W X Y Z

This Time Next Year - Alex In Wonderland tab

-------------------------------------------------------------------------------
			   Alex in Wonderland - This Time Next Year
-------------------------------------------------------------------------------
Tabbed By: Andrew Lassise

Tuning: 1/2 step down

Intro: Guitar 1
Eb|-------------------------------------------------------|
Bb|-------------------------------------------------------|
Gb|------9-9-9-9-9-----9-9-9-9-9----9-9-9-9-----9--11-13--|
Db|--7---x-x-x-x-x--9--x-x-x-x-x--2-x-x-x-x--2--x--x--x---|
Ab|--7---7-7-7-7-7--9--7-7-7-7-7--2-7-7-7-7--2--7--9--11--|
Eb|--5--------------7-------------0----------0------------|

Eb|-------------------------------------------------------|
Bb|-------------------------------------------------------|
Gb|------9-9-9-9-9-----9-9-9-9-9----9-9-9-9-----9--9--8---|
Db|--7---x-x-x-x-x--9--x-x-x-x-x--2-x-x-x-x--2--x--x--x---|
Ab|--7---7-7-7-7-7--9--7-7-7-7-7--2-7-7-7-7--2--7--7--6---|
Eb|--5--------------7-------------0----------0------------|

Eb|------------------------------------------------------------|
Bb|------------------------------------------------------------|
Gb|------9-9-9-9-9-----9-9-9-9-9----9-9-9-9-----9--11-13---2~--|
Db|--7---x-x-x-x-x--9--x-x-x-x-x--2-x-x-x-x--2--x--x--x----2~--|
Ab|--7---7-7-7-7-7--9--7-7-7-7-7--2-7-7-7-7--2--7--9--11---0~--|
Eb|--5--------------7-------------0----------0-----------------|

Guitar 2 [0:12]
Eb|-------------------------------------------------------------------------------------|
Bb|-------------------------------------------------------------------------------------|
Gb|---13-13-13-13-13-13-13-14-14-14-14-14-14-14-14-13-13-13-13-13-13-13---13-14-16-18---|
Db|---x--x--x--x--x--x--x--x--x--x--x--x--x--x--x--x--x--x--x--x--x--x----x--x--x--x----|
Ab|---11-11-11-11-11-11-11-12-12-12-12-12-12-12-12-11-11-11-11-11-11-11---11-12-14-16---|
Eb|---------------------------------------------------------------------------|

Eb|---------------------------------------------------------------------------|
Bb|---------------------------------------------------------------------------|
Gb|---16-16-16-16-16-16-16-16-18-18-18-18-18-18-18-18-13~~--------------------|
Db|---x--x--x--x--x--x--x--x--x--x--x--x--x--x--x--x--x-----------------------|
Ab|---14-14-14-14-14-14-14-14-16-16-16-16-16-16-16-16-11~~--------------------|
Eb|---------------------------------------------------------------------------|

Verse 1: Guitar 1
Eb|---------------------------------------------------------------------------------------------|
Bb|---------------------------------------------------------------------------------------------|
Gb|---2---2-2-2-----------------4---4-4-4-------------------------------------------------------|
Db|---2---2-2-2-----------------4---4-4-4------------------2-2-2-2-2-2-2-2-2-2-2-2-2-2-2-2-2----|
Ab|---0---0-0-0-----------------2---2-2-2------------------2-2-2-2-2-2-2-2-2-2-2-2-2-2-2-2-2----|
Eb|--------------------------------------------------------0-0-0-0-0-0-0-0-0-0-0-0-0-0-0-0-0----|
PM	                                                        * * *   * * *   * * *   * * *

Guitar 2
Eb|----------------------------------------------------------------------------------------------|
Bb|----------------------------------------------------------------------------------------------|
Gb|---2---2-2-2------------------4---4-4-4-------------------------------------------------------|
Db|---2---2-2-2------------------4---4-4-4------------------2-2-2-2-2-2-2-2-2-2-2-2-2-2-2-2-2----|
Ab|---0---0-0-0-7-7-7-7-7-7-7-7--2---2-2-2-7-7-7-7-7-7-7-7b-2-2-2-2-2-2-2-2-2-2-2-2-2-2-2-2-2----|
Eb|---------------------------------------------------------0-0-0-0-0-0-0-0-0-0-0-0-0-0-0-0-0----|
PM   	          * * * * * * * *            * * * * * * *    * * *   * * *   * * *   * * *

Eb|-----------------------------------------------------------------------------------------------|
Bb|-----------------------------------------------------------------------------------------------|
Gb|2---2-2-2------------------4---4-4-4-----------------------------------------------------------|
Db|2---2-2-2------------------4---4-4-4-------------------------2-2-2-2-2-2-2-2-2-2-2-2-2-2-2-2-2-|
Ab|0---0-0-0-7-7-7-7-9-9-9-9--2---2-2-2-12-12-12-12-12-12-12-7b-2-2-2-2-2-2-2-2-2-2-2-2-2-2-2-2-2-|
Eb|-------------------------------------------------------------0-0-0-0-0-0-0-0-0-0-0-0-0-0-0-0-0-|
PM	          * * * * * * * *            *  *  *  *  *  *  *     * * *   * * *   * * *   * * *

Prechorus: Guitar 1
Eb|--------------------------------------------------------------------------------------------|
Bb|--------------------------------------------------------------------------------------------|
Gb|---------------------------------2---2-2-2----6-6-6-6---------2-2-2-2-2-2-2-2---------------|
Db|---4---4-4-4---------------------2---2-2-2----6-6-6-6-2-2-2-2-2-2-2-2-2-2-2-2---------------|
Ab|---4---4-4-4---------------------0---0-0-0----4-4-4-4-2-2-2-2-0-0-0-0-0-0-0-0---------------|
Eb|---2---2-2-2------------------------------------------0-0-0-0-------------------------------|

Guitar 2 
Eb|--------------------------------------------------------------------------------------------|
Bb|--------------------------------------------------------------------------------------------|
Gb|---------------9-9-9-9-9-9-9-9-------------9/1111111111111-6-6-6-6---------2-2-2-2-2-2-2-2--|
Db|---4---4-4-4---x-x-x-x-x-x-x-x----7--7-7-7-x/x-x-x-x-x-x-x-6-6-6-6-2-2-2-2-2-2-2-2-2-2-2-2--|
Ab|---4---4-4-4---7-7-7-7-7-7-7-7----7--7-7-7-7/9-9-9-9-9-9-9-4-4-4-4-2-2-2-2-0-0-0-0-0-0-0-0--|
Eb|---2---2-2-2----------------------5--5-5-5-------------------------0-0-0-0------------------|

Chorus: Guitar 1
Eb|-------------------------------------|
Bb|-------------------------------------|
Gb|-------------------------------------|
Db|--2-2-2-2-4-4-4-4-7-7-7-7-7-7-7-7----| 
Ab|--2-2-2-2-4-4-4-4-7-7-7-7-7-7-7-7----|
Eb|--0-0-0-0-2-2-2-2-5-5-5-5-5-5-5-5----|

Guitar 2 
Eb|---0-0---0-7---0-0---0-7--0-0---0-0---0-0--0-0---0-0---0-2---0-0---0-2---0-0---0-2---0-0---0-2|
Bb|----------------------------------------------------------------------------------------------|
Gb|----------------------------------------------------------------------------------------------|
Db|----------------------------------------------------------------------------------------------|
Ab|----------------------------------------------------------------------------------------------|
Eb|----------------------------------------------------------------------------------------------|

Breakdown Guitar 1
Eb|---------------------------------------------------------------------------|
Bb|---------------------------------------------------------------------------|
Gb|---------------------------------------------------------------------------|
Db|--------------------------2-2-2---------------------------2----------------|
Ab|--------------------------2-2-2---------------------------2----------------|
Eb|--------------------------0-0-0---------------------------0----------------|

Breakdown Guitar 2
Eb|---------------------------------------------------------------------------|
Bb|---------------------------------------------------------------------------|
Gb|---------------------------------------------------------------------------|
Db|--------------------------2-2-2---------------------------2----------------|
Ab|------6h7-----6h7-----6h7-2-2-2-------6h7-----6h7-----6h7-2----------------|
Eb|--4h5-----4h5-----4h5 ----0-0-0---4h5-----4h5-----4h5 ----0----------------|

Guitar 1
Eb|------------------------------------------------|---------------|
Bb|------------------------------------------------|---------------|
Gb|------------------------------------------------|---------------|
Db|--2-2-----2-2--2-2----4-4----4-7--7-7-----------|-----2~--------|
Ab|--2-2-----2-2--2-2----4-4----4-7--7-7-----------|-----2~--------|
Eb|--0-0-----0-0--0-0----2-2----2-5--5-5-----------|-----0~--------|

Slow Part
Eb|---------------------------------------------------------------------------|
Bb|---------------------------------------------------------------------------|
Gb|----------1------------1-----------1---2-2p1-------------------------------|
Db|-------2------------2-----------2------------------------------------------|
Ab|----------------------------0~---------------------------------------------|
Eb|--0~------------2~---------------------------------------------------------|

Band Website: http://www.myspace.com/thistimenextyear

h - hammer on
p - pull off
x - dead note
/ - slide
* - palm mute
~ - hold
b - bend
Tap to rate this tab
 
# A B C D E F G H I J K L M N O P Q R S T U V W X Y Z