Song name
# A B C D E F G H I J K L M N O P Q R S T U V W X Y Z

This Time Next Year - Drop Out Of Life tab

Drop Out Of Life
This Time Next Year

C#G#C#F#A#D#

Intro
|-------------------------------|--------------------------|
|-------------------------------|--------------------------|
|-7-5-4---5-4-------------------|-5-4--5-4---5-4-----------|
|-------5-----5~--/7-5-/7-9-7-9-|-----------------/7-9-7-9-|
|-------------------------------|--------------------------|
|-------------------------------|--------------------------|

Verse
|----------------------------------------|
|----------------------------------------|
|----------------------------14-14-14-14-|
|-5-5~---5-5~---5-5~---2-2-2-------------|
|-5-5~---5-5~---5-5~---2-2-2-12-12-12-12-| 
|-5-5~---5-5~---5-5~---2-2-2-------------|

Gtr2 - Enters
|---------------------|
|---------------------|
|-12--7-14--12--16-14-|
|---------------------|
|-10--5-12--10--14-12-|
|---------------------|

Pre Chorus
|-----------------------------------------|
|-----------------------------------------|
|-12-7-12-7-12-11-7-5-12-7-12-7-----------|
|--------------------------------0--------|
|-10-5-10-5-10-9--5-3-10-5-10-5----2-3-5~-|
|-----------------------------------------|

Chorus
|-----------------------------------------------------------|
|-----------------------------------------------------------|
|-7--12--7--12--11--7--12--7--5--4--7--12--7--12--11--7--12-|
|-----------------------------------------------------------|
|-5--10--5--10--9---5--10--5--3--2--5--10--5--10--9---5--10-|
|-----------------------------------------------------------|

Repeat Intro
Repeat Verse
Repeat Pre Chorus
Repeat Chorus
Post Chorus
|----|
|----|
|----|
|-5~-|
|-5~-|
|-5~-|

Bridge
|---7----------8-7---|
|-----6----8-------8-|
|-7------5---5-------|
|--------------------|
|--------------------|
|--------------------|

Then
|------------|----|-------------------------|
|------------|----|-------------------------|
|-12-12------|----|-7--14--12--16--14--12/~-|
|------------|----|-------------------------|
|-10-10-0-x6-|-x--|-5--12--10--14--12--10/~-|
|-------0----|----|-------------------------|
         
Chorus
|----------------------------------------|----|-------------------------|
|----------------------------------------|----|-------------------------|
|----------------------------------------|----|-------------------------|
|-12-9-9-9-12-9-9-9-12-9-9-9-------------|----|-------------------------|
|----------------------------12-10-10-10-|-x3-|-12-12-12-10-10-10-9-9-9-|
|----------------------------------------|----|-------------------------|

|----------------------------------------|----|----------|
|----------------------------------------|----|----------|
|----------------------------------------|----|-12-12-12-|
|-12-9-9-9-12-9-9-9-12-9-9-9-------------|----|----------|
|----------------------------12-10-10-10-|-x3-|-10-10-10-|
|----------------------------------------|----|----------|

Outro
|---------------------------|
|-10-8--10-8--10-8--7-8-7-8-|
|---------------------------|
|---------------------------|
|---------------------------|
|---------------------------|
Tap to rate this tab
 
# A B C D E F G H I J K L M N O P Q R S T U V W X Y Z