Song name
# A B C D E F G H I J K L M N O P Q R S T U V W X Y Z

This Time Next Year - No Bed Of Broken Glass tab

-------------------------------------------------------------------------------
			     No Bed of Broken Glass - This Time Next Year
-------------------------------------------------------------------------------
Tabbed by: Andrew Lassise
Tuning: Down 1/2 step

Intro & Chorus x2
eb|---------------------------------------------------------------------------|
Bb|---------------------------------------------------------------------------|
Gb|----------------------------9------------------6----4---4-4-4--------------|
Db|--7--7-7----11---9---9-9-9--9-9------7--7-7----6----4---4-4-4---4---6------|
Ab|--7--7-7----11---9---9-9-9--7-9------7--7-7----4----2---2-2-2---4---6------|
Eb|--5--5-5----9----7---7-7-7----7------5--5-5---------------------2---4------|

Verses x2
eb|---------------------------------------------------------------------------|
Bb|---------------------------------------------------------------------------|
Gb|------------------------------------6-6-6-6-6-6-6-6-4-4-4-4-4-4-4-4--------|
Db|--2-2-2-2-2-2-2-2-2-2-2-2-2-2-2-2-2-6-6-6-6-6-6-6-6-4-4-4-4-4-4-4-4--------|
Ab|--2-2-2-2-2-2-2-2-2-2-2-2-2-2-2-2-2-4-4-4-4-4-4-4-4-2-2-2-2-2-2-2-2--------|
Eb|--0-0-0-0-0-0-0-0-0-0-0-0-0-0-0-0-0----------------------------------------|
PM     * * * * * * * * * * * * * * * *   * * * * * * *   * * * * * * *

Breakdown (1:20) "I'm sorry that I'm not sorry Then (1:51) (2x)
eb|-----|--------------------------------------------------------------------------|
Bb|-----|--------------------------------------------------------------------------|
Gb|-----|----------------------------------------------6------4--------------------|
Db|-2~--|--6-4-2-2-2-2-2-2-2-2-2-2-2-2-2-2-2-2--7------6-(8x)-4-(8x)-7-------------|
Ab|-2~--|--6-4-2-2-2-2-2-2-2-2-2-2-2-2-2-2-2-2--7(16x)-4------2------7-(16x)-------|
Eb|-0~--|--4-2-0-0-0-0-0-0-0-0-0-0-0-0-4-0-4-0--5--------------------5-------------|

Outro [2:17] Listen for strumming / muting I'm just putting the outline (2x)
eb|--------------------------------------------------|-------------------------|
Bb|--------------------------------------------------|-------------------------|
Gb|----------------6-6-6---4-4-4--2-2-2--------------|-------------------------|
Db|--6-4--2-2-2----6-6-6---4-4-4--2-2-2--------------|--2-2--2-2-2-2-2-2-------|
Ab|--6-4--2-2-2----4-4-4---2-2-2--0-0-0--------------|--2-2--2-2-2-2-2-2-------|
Eb|--4-2--0-0-0--------------------------------------|--0-0--0-0-0-0-0-0-------|
pm          * *      * *     * *    * *                      * * * *


************************************
Sorry I can't hear the lead, i hope somebody eventually puts it up
************************************
Tap to rate this tab
 
# A B C D E F G H I J K L M N O P Q R S T U V W X Y Z