Song name
# A B C D E F G H I J K L M N O P Q R S T U V W X Y Z

This Time Next Year - Calling In Dead tab

-------------------------------------------------------------------------------
		  Calling in Dead - This Time Next Year
-------------------------------------------------------------------------------
Tabbed by: Andrew Lassise
Tuning: Down 1/2 Step

Intro Guitar 1                                                   End on
eb|-----------------------------------------------------------|-----------------|
Bb|-----------------------------------------------------------|-----------------|
Gb|--2-2--2-1-2-----2-1-------7-7-7-7-7-7-7-7-7-7-7-7-7-7-7-7-|-----------------|
Db|--2-2--------2-2-----2-----7-7-7-7-7-7-7-7-7-7-7-7-7-7-7-7-|---7-7-----------|
Ab|--0-0--------2-2-----------5-5-5-5-5-5-5-5-5-5-5-5-5-5-5-5-|---7-7-----------|
Eb|-------------0-0-------------------------------------------|---5-5-----------|
Intro Guitar 2							End on
eb|-----------------------------------------------------------|-----------------|
Bb|-----------------------------------------------------------|-----------------|
Gb|--2-2--2-1-2-----2-1---------------------------------------|-----------------|
Db|--2-2--------2-2-----2-------------------------------------|---7-7-----------|
Ab|--0-0--------2-2-----------5-5-5-5-4-4-4-4-2-2-2-2-0-0-0-0-|---7-7-----------|
Eb|-------------0-0-------------------------------------------|---5-5-----------|

Fill [0:20] (Right before the prechorus play the 466/577 part)   End on
eb|----------------------------------------------------------|-----------------|
Bb|----------------------------------------------------------|-----------------|
Gb|--------------------------------6-6--6-7-7-7-7-7-7-7-7----|-----------------|
Db|---7-7---7-9--2-2-2-2-2-2-2-2---6-6--6-7-7-7-7-7-7-7-7----|----7~-----------|
Ab|---7-7---7-9--2-2-2-2-2-2-2-2---4-4--4/5-5-5-5-5-5-5-5----|----7~-----------|
Eb|---5-5---5/7--0-0-0-0-0-0-0-0-----------------------------|----5~-----------|

Prechorus Guitar 1 [0:40] "Nevermind your best intentions"
eb|-------------------------------------------------------------------------------------|
Bb|-------------------------------------------------------------------------------------|
Gb|--------------------------------------------7--7-7-7-7-7-7-7-7-----------------------|
Db|--4--4-4-4-4-4-4-4-4---2--2-2-2-2-2-2-2-2---7--7-7-7-7-7-7-7-7--7--7-7-7-7-7-7-7-7---|
Ab|--4--4-4-4-4-4-4-4-4---2--2-2-2-2-2-2-2-2---5--5-5-5-5-5-5-5-5--7--7-7-7-7-7-7-7-7---|
Eb|--2--2-2-2-2-2-2-2-2---0--0-0-0-0-0-0-0-0-----------------------5--5-5-5-5-5-5-5-5---|
PM      * * * * * * * *      * * * * * * * *      * * * * * * * *     * * * * * * * *

Prechorus Guitar 2 [0:50]
eb|---------------------------------------------------------------------------------------------|
Bb|---------------------------------------------------------------------------------------------|
Gb|-----6-6--4--4-4-4-4---------6-6--4--4-4-4-4---------6-6--4--4-4-4-4----6-6-6-6-9-9-9-9------|
Db|-----x-x--x--x-x-x-x---------x-x--x--x-x-x-x---------x-x--x--x-x-x-x----x-x-x-x-x-x-x-x------|
Ab|-----4-4--2--2-2-2-2---------4-4--2--2-2-2-2---------4-4--2--2-2-2-2----4-4-4-4-7-7-7-7------|
Eb|---------------------------------------------------------------------------------------------|

Chorus Guitar 1 [0:50]
eb|---------------------------------------------------------------------------|
Bb|---------------------------------------------------------------------------|
Gb|------------------7-7-7-7-7-7-7-7-----------------7-7-7-7-7-7-7-7----------|
Db|--7-7-7-7-7-7-7-7-7-7-7-7-7-7-7-7-4-4-4-4-4-4-4-4-7-7-7-7-7-7-7-7----------|
Ab|--7-7-7-7-7-7-7-7-5-5-5-5-5-5-5-5-4-4-4-4-4-4-4-4-5-5-5-5-5-5-5-5----------|
Eb|--5-5-5-5-5-5-5-5-----------------2-2-2-2-2-2-2-2--------------------------|

Chorus Guitar 2 [0:50]
eb|----------------------------------------------------------------------------------------------|
Bb|-12-12-10-10-9-9-10-10-12-12-10-10-9-9-----12-12-10-10-9-9-10-10-12-12-10-10-9-9--------------|
Gb|---------------------------------------9-9---------------------------------------9-9/11-11/13~|
Db|----------------------------------------------------------------------------------------------|
Ab|----------------------------------------------------------------------------------------------|
Eb|----------------------------------------------------------------------------------------------|

Alternate Prechorus [1:51] Same Lead Guitar as previous
eb|---------------------------------------------------------------------------|
Bb|---------------------------------------------------------------------------|
Gb|------------------------------7~---6-6-6-6-6-6-6-6-9-9-9-9-9-9-9-9---------|
Db|---4~------------2~2----------7~---6-6-6-6-6-6-6-6-9-9-9-9-9-9-9-9---------|
Ab|---4~------------2-2----------5~---4-4-4-4-4-4-4-4-7-7-7-7-7-7-7-7---------|
Eb|---2~------------0-0-------------------------------------------------------|

Build Up Guitar 1 [2:21]
eb|---------------------------------------------------------------------------|
Bb|---------------------------------------------------------------------------|
Gb|---------7-7-7------------------------7-7-7--------------------------------|
Db|--7------7-7-7----4-4-4------7-7-7----7-7-7--4-4-4-4-4-4-4-4-4-------------|
Ab|--7------5-5-5----4-4-4------7-7-7----5-5-5--4-4-4-4-4-4-4-4-4-------------|
Eb|--5---------------2-2-2------5-5-5-----------2-2-2-2-2-2-2-2-2-------------|
					      PM  * * * * * * * *
Build Up Guitar 2 [2:29]
eb|---------------------------------------------------------------------------|
Bb|-------------------10-10-9-9-----10-10-9-9-----10-10-9-9-------------------|
Gb|---9-9-9-9-9-9-9-9-----------9-9-----------9-9-----------------------------|
Db|---------------------------------------------------------------------------|
Ab|---------------------------------------------------------------------------|
Eb|---------------------------------------------------------------------------|

Final Chorus Guitar 2 4x (end on 10 on the e string)
eb|------------------------------------------------------------------------10-9-----|
Bb|--10-10-9-9-----9-9-10-10-9-9-----9-9-12-12-10-10-9-9-10-10-12-12-10-10----------|
Gb|------------9-9---------------9-9------------------------------------------------|
Db|---------------------------------------------------------------------------------|
Ab|---------------------------------------------------------------------------------|
Eb|---------------------------------------------------------------------------------|

************************************

| /   slide up
| \   slide down
| h   hammer-on
| p   pull-off
| ~   vibrato
| +   harmonic
| x   Mute note
| b   Bend
| pb  Pre-bend
| br  Bend release
| pbr Pre-bend release
| brb Bend release bend

************************************
Tap to rate this tab
 
# A B C D E F G H I J K L M N O P Q R S T U V W X Y Z