Song name
# A B C D E F G H I J K L M N O P Q R S T U V W X Y Z

This Time Next Year - No Bed Of Broken Glass tab

-----------------------------------------------------------------------------
	         NO BED OF BROKEN GLASS - This Time Next Year
-----------------------------------------------------------------------------
Tabbed by: Josh Drop D Defibaugh
Email: josh.defibaugh.g@gmail.com

Tuning:Half step down Eb Ab Db Gb Bb eb

Intro
eb|----------------------------------------------|
Bb|---------------------------------------------.|
Gb|----------------------------------------------|
Db|-7-77--119--------6h7p66--7-77--119-99-2-4-6--|
Ab|-7-77--119----7-9------7--7-77--119-99-2-4-6-.|
Eb|-5-55--9-7--9-------------5-55--9-7-77-0-2-4--|x2

Verse
eb|-------------------------------------------------|
Bb|------------------------------------------------.|
Gb|----------------6-6666666666666-4-4444444444444--|
Db|2-2222222222222-6-6666666666666-4-4444444444444--|
Ab|2-2222222222222-4-4444444444444-2-2222222222222-.|
Eb|0-0000000000000----------------------------------|x2

Back to intro
eb|----------------------------------------------|
Bb|---------------------------------------------.|
Gb|----------------------------------------------|
Db|-7-77--119--------6h7p66--7-77--119-99-2-4-6--|
Ab|-7-77--119----7-9------7--7-77--119-99-2-4-6-.|
Eb|-5-55--9-7--9-------------5-55--9-7-77-0-2-4--|x2

Another verse
eb|-------------------------------------------------|
Bb|------------------------------------------------.|
Gb|----------------6-6666666666666-4-4444444444444--|
Db|2-2222222222222-6-6666666666666-4-4444444444444--|
Ab|2-2222222222222-4-4444444444444-2-2222222222222-.|
Eb|0-0000000000000----------------------------------|x2

Surprise! Intro
eb|----------------------------------------------|
Bb|---------------------------------------------.|
Gb|----------------------------------------------|
Db|-7-77--119--------6h7p66--7-77--119-99-2-4-6--|
Ab|-7-77--119----7-9------7--7-77--119-99-2-4-6-.|
Eb|-5-55--9-7--9-------------5-55--9-7-77-0-2-4--|x2

(Bass interlude)[I'm Falling Down]

I'm sorry that I'm not sorry...

I'm not afraid of life I only fear the end..
eb|--------------------------------------------------------------------------|
Bb|--------------------------------------------------------------------------|
Gb|--------------------------------------------------------------------------|
Db|--6-4-222222222222---------7777777777777777-11111111-9999999-777777777777-|
Ab|--6-4-222222222222---------7777777777777777-11111111-9999999-777777777777-|
Eb|--4-2-000000000000-2h0-4h0-5555555555555555-99999999-7777777-555555555555-|

The above is repeated two times.

This next bit is a little tricky to tab out.  I will do my best!

eb|---------------------------------------------|
Bb|---------------------------------------------|
Gb|---------------------------------------------|
Db|2--222-22-222--11x-x-7-x-x-7--7/9-9--22---22-|
Ab|2--222-22-222--11x-x-7-x-x-7--7/9-9--22---22-|
Eb|0--000-00-000--9-x-x-5-x-x-5--5/7-7--00---00-|x2

There you go.  My interpretation of it. I hope it helps

******************************
| /   slide up
| h   hammer-on
| p   pull-off
| x   Mute note
******************************
Tap to rate this tab
 
# A B C D E F G H I J K L M N O P Q R S T U V W X Y Z