This Time Next Year - Rise And Fall Curtain Call tab

-------------------------------------------------------------------------------
		Rise & Fall, Curtain Call- This Time Next Year
-------------------------------------------------------------------------------
Tabbed by: Andrew Lassise
Tuning: Down 1/2 Step

Intro 
eb|-----------------------------------------------------------------------------------------|
Bb|-----------------------------------------------------------------------------------------|
Gb|--9--9-9-9-9-9-9-9-9-9------------------------9--9-9-9-9-9-9-9-9-9-----------------------|
Db|--9--9-9-9-9-9-9-9-9-9-9--9-9-9-9-7-7-7-7-7---9--9-9-9-9-9-9-9-9-9--9-9-9-7--------------|
Ab|--7--7-7-7-7-6-6-6-6-6-9--9-9-9-9-7-7-7-7-7---7--7-7-7-7-6-6-6-6-6--9-9-9-7--------------|
Eb|-----------------------7--7-7-7-7-5-5-5-5-5-------------------------7-7-7-5--------------|
PM     * * * *               * * * *                * * * * 

Verse
eb|-----------------------------------------|-----------------------------------------|
Bb|-----------------------------------------|-----------------------------------------|
Gb|-9-9-9-9-9-9-9-9-------------------------|-----------------------------------------|
Db|-9-9-9-9-9-9-9-9-9-9-9-9-7-7-7-7---[x4]--|--4-4-4-4-4-4-4-4-7-7-7-7-7-7-7-7--------|
Ab|-7-7-7-7-6-6-6-6-9-9-9-9-7-7-7-7---------|--4-4-4-4-4-4-4-4-7-7-7-7-7-7-7-7--------|
Eb|-----------------7-7-7-7-5-5-5-5---------|--2-2-2-2-2-2-2-2-5-5-5-5-5-5-5-5--------|

Chorus
eb|---------------------------------------------------------------------------------|
Bb|---------------------------------------------------------------------------------|
Gb|-----------------2-2-2-2-2-2-2-2-4-4-4-4-4-4-4-4---2-2--2-2----------------------|
Db|-2-2-2-2-2-2-2-2-2-2-2-2-2-2-2-2-4-4-4-4-4-4-4-4---2-2--2-2----------------------|
Ab|-2-2-2-2-2-2-2-2-0-0-0-0-0-0-0-0-2-2-2-2-2-2-2-2---0-0--0-0----------------------|
Eb|-0-0-0-0-0-0-0-0-----------------------------------------------------------------|

Bridge (Palm mute the first couple times through, then strum regularly)
eb|---------------------------------------------------------------------------------|
Bb|---------------------------------------------------------------------------------|
Gb|------9-9-9-9-9-9-9-9------------------------------------------------------------|
Db|-2~~--9-9-9-9-9-9-9-9-9-9-9-9-7-7-7-7-7-7-7-7------------------------------------|
Ab|-2~~--7-7-7-7-6-6-6-6-9-9-9-9-7-7-7-7-7-7-7-7------------------------------------|
Eb|-0~~------------------7-7-7-7-5-5-5-5-5-5-5-5------------------------------------|
PM       * * * * * * * * * * * * * * * * * * * *

Breakdown
eb|-----------------------------------|----------------------------------------------|
Bb|-----------------------------------|----------------------------------------------|
Gb|--9-9--9-9--7-7--------------------|---7----------7----------7--------------------|
Db|--9-9--9-9--7-7--7-7--7-7-7-7------|---7--7-7-7-7-7--7-7-7-7-7-7-7-7-7-7-7-7-7----|
Ab|--7-7--6-6--5-5--7-7--7-7-7-7------|---5--7-7-7-7-5--7-7-7-7-5-7-7-7-7-7-7-7-7----|
Eb|-----------------5-5--5-5-5-5------|------5-5-5-5----5-5-5-5---5-5-5-5-5-5-5-5----|

Guitar 2
eb|----------------------------------|-------------------------------------------------|
Bb|----------------------------------|-------------------------------------------------|
Gb|---13-13--11-11-14-14-9-9-9/11\9--|-14-7-7-7-7-7-7-14-7-7-7-7-7-7-14-7-7-7-7-7-7----|
Db|---x--x---x--x--x--x--x-x-x-x--x--|-x--x-x-x-x-x-x-x--x-x-x-x-x-x-x--x-x-x-x-x-x----|
Ab|---11-11--9--9--12-12-7-7-7/9\-7--|-12-5-5-5-5-5-5-12-5-5-5-5-5-5-12-5-5-5-5-5-5----|
Eb|----------------------------------|-------------------------------------------------|
Tap to rate this tab
 
# A B C D E F G H I J K L M N O P Q R S T U V W X Y Z