Song name
# A B C D E F G H I J K L M N O P Q R S T U V W X Y Z

This Town Needs Guns - Chinchilla tab

Hello all, it's Jeremiah. To ease the requests Tim Collis' wall on facebook,
i've decided to tab out Chinchilla.
He hands out his hand written tabs to whomever asks,
So, i'm copying it from the paper, to the internet.
This is 100% right as tim tabbed it himself. I am only copying it
word for word here (Even his little notes). Sorry if there is any
missing information.

key:
h - Hammer On
p - Pull off
^ - Bend
^( ) - Bend (Bend To)
^' - Bend then Release
. - Repeat staff
/ - Slide Up
\ - Slide Down
~ - Vibrato/Let ring
* - Harmonic
P* - Pinch Harmonic
( ) - Ghost Note

Artist: This Town Needs Guns
Song: Chinchilla
Album: Animals
Year: 2008
website:http://www.thistownneedsguns.com/
Tabs from: Tim Collis
re-tabbed by: Jeremiah(sauce)
Tuning: F G# D# F# A# D#

Intro Riff: I
D#|---------------------------0------|--------------|
A#|-------------0------8--------0----|-0------0-----|
F#|.--------------0------9--------0--|---0------0---|
D#|.-----0h8h10------------10--------|-----10-----5-|
G#|--9h10------------10--------------|-7------3-----|
F |----------------------------------|--------------|
    :x6 (I think!)

|---------------------|------------------------0-----|---|
|----15-------15------|------------0-----8-------0---|---|
|-------0--------0----|--------------0-----9-------0-|---|
|---------17-------17-|-----0h8h10-----------10------|---|
|-14------------------|-9h10-----------10------------|---|
|---------------------|------------------------------|---|

                                 II
|-----------------------------|||----------2---------------|
|-0------0-----0--------------|||-0-----0h3----------------|
|---0------0-----0-------0---.|||.--0----------------------|
|-----10-----5-----12---0-0--.|||.-------------------------|
|-7------3-----10------3---3--|||-7---3--------------------|
|---------------------3-------|||--------------------------|
                                  Repeat x4 or 6 (Can't remember sorry!)

        bend/release
           (1/2)
|-----0-------0--------------------------------|
|-0------3^'---0-----------0------------0------|
|---0----4^'-----------0h5---0------7h9---0---.|
|------------------0h5---------0------------0-.|
|----------------------------------------------|
|--------0-------6----------------8------------|

 III
|------------------10----------------------(14)--0---|
|-----------0--------12------12-----------0---15---0-|
|.------------0--------11--11-------(14)-------------|
|.----10/12-----10-------12--------0---14------------|
|----9---------------------------15------------------|
|-10---------------------------15--------------------|
 repeat x4(ish)

|-------------------|-----------------10-----------|
|-------0-----------|----------0--------12------12-|
|---7/5---0---------|------------0--------11--11---|
|---7/5---------0---|----10/12--------------12-----|
|-0---------5/7---0-|---9-----------10-------------|
|-----------5/6-----|-10---------------------------|

                                                  p2/2

|------------(14)--0-----------------------|
|------(14)-0---15---0-------0-------------|
|-----0---14-------------7/5--0-----0-0-0-.|
|---15-------------------7/5-------2-2-2--.|
|-15-------------------0--------0----------|
|------------------------------------------|

 Back to riff II then to riff I (you can listen to the structure in the song)
-------------------------------------------|
-------------------------------------------|
-------------------------------------------|
-------------------------------------------|
-------------------------------------------|
-------------------------------------------|

 Outro riff (IV)
||---------------------------------------------------------|
||-10-------10------0------3-----0-----0-----3------0------|
||.--12-------12------7------4-----0-----0-----4------0----|
||.-----12------12------0------5-----0-----0-----5------0--|
||---------0--------7------5-----3-----3-----5-------------|
||-0-----------------------------------------------3//////-|
                                                   (slide to 7)

|---0----|-----------------------------------------------|
|----0---|-----------------------------------------------|
|-----7-.|-----------------------------------------------|
|-------.|-----------------------------------------------|
|--------|-----------------------------------------------|
|/7------|-----------------------------------------------|
Tap to rate this tab
 
# A B C D E F G H I J K L M N O P Q R S T U V W X Y Z