Song name
# A B C D E F G H I J K L M N O P Q R S T U V W X Y Z

This Town Needs Guns - 26 Is Dancier Than 4 tab

Hey, it's Jeremiah again. 
Just copying Tim's tabs to the internet again.
Once again, These are 100% correct, as Tim wrote them himself.

Artist: This Town Needs Guns
Song: 26 is Dancier Than 4
Album: This Town Needs Guns/Cats and Cats and Cats (split EP)
Year: 2007
Tuning: C G D G B D (open) - Capo 8th Fret

key:
h - Hammer On
p - Pull off
^ - Bend
^( ) - Bend (Bend To)
^' - Bend then Release
. - Repeat staff
/ - Slide Up
\ - Slide Down
~ - Vibrato/Let ring
* - Harmonic
P* - Pinch Harmonic
( ) - Ghost Note
*note: h's with no numbers to the left of them mean open hammer ons.
just press your finger to the string as you where doing a hammer on.


D|----------------------------------------|
B|----------------------------------------|
G|.-------------------h15h17--------------|
D|.8h12h15-17/18-8h13--------h17p13-------|
G|----------------------------------17/20-|
C|-8h12----------8------------------------|

|---------------------------|---------------|
|---------------------------|---------------|
|-8h12-8h12h15-8h12-8h12h15-|-8-----h15-----|
|-8h10-8h10h15-8h10-8h10h15-|--h12------h15-|
|---------------------------|---------------|
|-8----8-------8----8-------|-8h10----------|

|---------------------------------------------|
|-----h15-----------------------h15-----------|
|----------8--------h15-------------8-----h15-|
|---h12---------h12-----h15---h12------h12h15-|
|---------------------------------------------|
|-h10------8h10-------------h10-----8h10------|
  triplet                   triplet

|----------------------------------------|
|----------------------------------------|
|--------------------h15h17--------------|
|-8h12h15-17/18-8h13--------h17p13-------|
|----------------------------------17/20-|
|-8h12----------8------------------------|

|---------------------------|---------------|
|---------------------------|---------------|
|-8h12-8h12h15-8h12-8h12h15-|-8-----h15-----|
|-8h10-8h10h15-8h10-8h10h15-|--h12------h15-|
|---------------------------|---------------|
|-8----8-------8----8-------|-8h10----------|

|-----------------------------|---------------------|
|----------h15----------------|---------------------|
|-8----h15-----8---------h15-.|---------------------|
|--h12-----h15------h12-------|---------------------|
|------h15---------------h15-.|---------------------|
|-8h10---------8h10-----------|---------------------|
Tap to rate this tab
 
# A B C D E F G H I J K L M N O P Q R S T U V W X Y Z