This Town Needs Guns - Zebra tab

Zebra (Glockenspiel part) This Town Needs Guns
-----------------------------------------------------------------
Tabbed by: andy_p_
Email: andrew.pattersonap24@googlemail.com

Tuning: Standard (capo 3rd)
Because most of the notes are on the 3rd fret I use a capo to make it simples.
This is an octave down for simplicity also (I only have a cumbersome acoustic at my Uni)


e|------------0-----------------0------------------|
B|---0--0--------0-----0--0------------------------|
G|---------0-----------------0---------------------|
D|-------------------------------------------------|
A|-------------------------------------------------| 	
E|---0--0-----0--------0--0-----0------------------|

e|------------0------------------------------------|
B|---0--0--------0-----0--0--1--3------------------|
G|---------0---------------------------------------|
D|-------------------------------------------------|
A|-------------------------------------------------| 	
E|---0--0-----0--------0--0------------------------|

e|------------0-----------------0------------------|
B|---0--0--------0-----0--0------------------------|
G|---------0-----------------0---------------------|
D|-------------------------------------------------|
A|-------------------------------------------------| 	
E|---3--3-----3--------3--3-----3------------------|

e|------------0-----------------0------------------|
B|---0--0--------0-----0--0------------------------|
G|---------0-----------------0---------------------|
D|-------------------------------------------------|
A|-------------------------------------------------| 	
E|---3--3-----3--------3--3-----3------------------|

Repeat at leisure.
Tap to rate this tab
 
# A B C D E F G H I J K L M N O P Q R S T U V W X Y Z