Song name
# A B C D E F G H I J K L M N O P Q R S T U V W X Y Z

This Town Needs Guns - Crocodile tab

Una genial balada math-rock  de This Town Needs Guns, muy influenciada seguramente por 
American Football (Es hasta la misma afinaciуn de "Never Meant). Cualquier duda estoy a 
sus servicios en Facebook: www.facebook.com/osnegrete

A great math-rock ballad from This Town Needs Guns, very influenced surely by American 
Football (it's even the same tunning of "Never Meant")
Any doubts i'm at your service at Facebook www.facebook.com/osnegrete

Afinaciуn/tuning: FACGCE CAPO 3
Tablatura relativa al capo /Tab relativo to capo

Intro/Verso
E----------------------------------------------|
C----7-----------------------------------------|
G-----9/7-5------0--------0----------0---------|
C-----------7/4----0----0----------0-----------|
A--0----------------3/2----------2-------------|
F----------------------------0n2---------------|

God knows why we're in love...
E----------------------------------------------|
C----7-----------------------------------------|
G-----9/7-5------0--------0----------0---------|
C-----------7/4----0----0----------0-----------|
A-------------------3/2----------2-------------|
F--0-------------------------0h2---------------|

 I promise I will not see...
E----------------------------------------------|
C-7-----7----7-----7---9-----------------------|
G---9-----9----9----9----9---9-----------------|
C----------------------------------------------|
A-0---0------0---0-----0---0-------------------|
F----------------------------------------------|

...Out this night without
E------0---------0---------0-------------------|
C-0------0--0------0--0------------------------|
G---7---------7---------7----------------------|
C----------------------------------------------|
A----------------------------------------------|
F-7--7------7---7-----7---7--------------------|

 End
E----------------------------------------------|
C---0------------------------------------------|
G----------------------------------------------|
C----------------------------------------------|
A----------------------------------------------|
F---7------------------------------------------|
Tap to rate this tab
 
# A B C D E F G H I J K L M N O P Q R S T U V W X Y Z