Song name
# A B C D E F G H I J K L M N O P Q R S T U V W X Y Z

This Wild Life - Sleepwalking tab

THIS WILD LIFE
"Sleepwalking" by Bring me the Horizon
E standard capo at the 6th fret

INTRO
E |-3-----------------------------3-----------------------------------3-----------------------------3-|
B |-1-----------------------------1-----------------------------------0-----------------------------3-|
G |-0-----------------------------2-----------------------------------0-----------------------------0-|
D |-2-----------------------------2-----------------------------------2-----------------------------0-|
A |-3-----------------------------------------------------------------2-----------------------------2-|
E |-------------------------------------------------------------------0-----------------------------3-|

E |-------------------------------------------------------------------------------------------------|
B |-5--5--5--5--3--3--5--5-----------------------------------8--8--8--------------8--8--7--7--7--7--|
G |-------------------------4--4--5--4--4--4--5--5--4--4--4-----------4--4--------------------------|
D |-------------------------------------------------------------------------7--7--------------------|
A |-------------------------------------------------------------------------------------------------|
E |-------------------------------------------------------------------------------------------------|

VERSE

E |---------------------------------------------------------------------------------------------------|
B |-------------1-----------------------1-/3-----0--------0-----------------------0-------------------|
G |----------0-----0-----0-----------2-----------0-----------0-----0-----------------0-----0----------|
D |-0-p2--2-----------2-----------2--------------------2--------2--------------0--------0-------------|
A |-3--------------------------0--------------------2-----------------------2-------------------------|
E |----------------------------------------------0-----------------------3----------------------------|


E |---------------------------------------------------------------------------------------------------|
B |-------------1-p0--------------------1-/3--0-------------------------------------------------------|
G |----------0--------0-----0--------2--------0-------------------------------------------------------|
D |-0-p2--2--------------2--------2-------------------------------------------------------------------|
A |-3--------------------------0----------------------------------------------------------------------|
E |-------------------------------------------0-------------------------------------------------------|

PRECHOURUS

E |-3-----------------------------3-----------------------------------3-----------------------------3-|
B |-1-----------------------------1-----------------------------------0-----------------------------3-|
G |-0-----------------------------2-----------------------------------0-----------------------------0-|
D |-2-----------------------------2-----------------------------------2-----------------------------0-|
A |-3-----------------------------------------------------------------2-----------------------------2-|
E |-------------------------------------------------------------------0-----------------------------3-|

E |---------------------------------------------------------------------------------------------------|
B |----------1--------------------1-----------------------------------------------------------1-------|
G |-------0-----0-----0--------2-----2-----2-----------0--------------------0--------------0-----0----|
D |----2-----------2--------2-----------2-----------2-----2-----2--------0-----0--------2-----------2-|
A |-3--------------------0-----------------------2-----------2--------2-----------2--3----------------|
E |-------------------------------------------0--------------------3----------------------------------|

E |----------------------------0--------------------------------3-------------------------------------|
B |-------------1--------------0--------------------------------3-------------------------------------|
G |-0--------2-----2-----2-----0--------------------------------0-------------------------------------|
D |-------2-----------2--------2--------------------------------0-------------------------------------|
A |----0-----------------------2--------------------------------2-------------------------------------|
E |----------------------------0--------------------------------3-------------------------------------|

CHORUS

E |-3-----------------------------3-----------------------------------3-----------------------------3-|
B |-1-----------------------------1-----------------------------------0-----------------------------3-|
G |-0-----------------------------2-----------------------------------0-----------------------------0-|
D |-2-----------------------------2-----------------------------------2-----------------------------0-|
A |-3-----------------------------------------------------------------2-----------------------------2-|
E |-------------------------------------------------------------------0-----------------------------3-|

2nd VERSE

E |-3--------------------------------------------3--------------------------------------------------3-|
B |-3--------------------------------------------0--------------------------------------------------3-|
G |-0--------------------------------------------0--------------------------------------------------0-|
D |-2--------------------------------------------2--------------------------------------------------0-|
A |-3--------------------------------------------2--------------------------------------------------2-|
E |----------------------------------------------0--------------------------------------------------3-|

E |-------3-----------3-----------3-----------3-----------8-----------8-----------6-----------6-------|
B |-5--5-----5--5--5-----5--5--5-----5--5--5-----5-/9--9-----9--9--9-----9--9--9-----9--9--9-----9-/5-|
G |---------------------------------------------------------------------------------------------------|
D |---------------------------------------------------------------------------------------------------|
A |---------------------------------------------------------------------------------------------------|
E |---------------------------------------------------------------------------------------------------|

PRECHORUS

E |-3--3--3--3--3--------------8--8--8--8--8--------------6--6--6--6--6--------------11-11-11-11-11---|
B |-5--5--5--5--5--------------9--9--9--9--9--------------9--9--9--9--9--------------9--9--9--9--9----|
G |-5--5--5--5--5--------------10-10-10-10-10-------------10-10-10-10-10-------------10-10-10-10-10---|
D |---------------------------------------------------------------------------------------------------|
A |---------------------------------------------------------------------------------------------------|
E |---------------------------------------------------------------------------------------------------|

E |-3-----------------------------3-----------------------------------3-----------------------------3-|
B |-1-----------------------------1-----------------------------------0-----------------------------3-|
G |-0-----------------------------2-----------------------------------0-----------------------------0-|
D |-2-----------------------------2-----------------------------------2-----------------------------0-|
A |-3-----------------------------------------------------------------2-----------------------------2-|
E |-------------------------------------------------------------------0-----------------------------3-|

CHORUS
E |-3-----------------------------3-----------------------------------3-----------------------------3-|
B |-1-----------------------------1-----------------------------------0-----------------------------3-|
G |-0-----------------------------2-----------------------------------0-----------------------------0-|
D |-2-----------------------------2-----------------------------------2-----------------------------0-|
A |-3-----------------------------------------------------------------2-----------------------------2-|
E |-------------------------------------------------------------------0-----------------------------3-|

BRIDGE

E |---------------------------------------------------------------------------------------------------|
B |-0-----------0-h1-----------0-----------0----------------------------------------------------------|
G |-------0--------------0-----------0-----------0----------------------------------------------------|
D |----2-----2--------2-----2-----0-----0-----2-----2-------------------------------------------------|
A |-------2-----3--------3-----------2-----------2----------------------------------------------------|
E |-0--------------------------3-----------3----------------------------------------------------------|

E |-3--------------------------------------------3--------------------------------------------------3-|
B |-0--------------------------------------------1--------------------------------------------------3-|
G |-0--------------------------------------------0--------------------------------------------------0-|
D |-2--------------------------------------------2--------------------------------------------------0-|
A |-2--------------------------------------------3--------------------------------------------------2-|
E |-0-----------------------------------------------------------------------------------------------3-|

CHORUS
E |-3-----------------------------3-----------------------------------3-----------------------------3-|
B |-1-----------------------------1-----------------------------------0-----------------------------3-|
G |-0-----------------------------2-----------------------------------0-----------------------------0-|
D |-2-----------------------------2-----------------------------------2-----------------------------0-|
A |-3-----------------------------------------------------------------2-----------------------------2-|
E |-------------------------------------------------------------------0-----------------------------3-|

E |-3--3--3--3--3--------------8--8--8--8--8--------------6--6--6--6--6--------------11-11-11-11-11---|
B |-5--5--5--5--5--------------9--9--9--9--9--------------9--9--9--9--9--------------9--9--9--9--9----|
G |-5--5--5--5--5--------------10-10-10-10-10-------------10-10-10-10-10-------------10-10-10-10-10---|
D |---------------------------------------------------------------------------------------------------|
A |---------------------------------------------------------------------------------------------------|
E |---------------------------------------------------------------------------------------------------|

OUTRO
E |---------------------------------------------------------------------------------------------------|
B |-5--5--5--5--3--3--5--5-----------------------------------8--8--8-----------------8--8--7--7--7--7-|
G |-------------------------4--4--5--4--4--4--5--5--4--4--4-----------4--4----------------------------|
D |-------------------------------------------------------------------------7--7--7-------------------|
A |---------------------------------------------------------------------------------------------------|
E |---------------------------------------------------------------------------------------------------|

E |-3-----------------------------3-----------------------------------3-----------------------------3-|
B |-1-----------------------------1-----------------------------------0-----------------------------3-|
G |-0-----------------------------2-----------------------------------0-----------------------------0-|
D |-2-----------------------------2-----------------------------------2-----------------------------0-|
A |-3-----------------------------------------------------------------2-----------------------------2-|
E |-------------------------------------------------------------------0-----------------------------3-|
Tap to rate this tab
# A B C D E F G H I J K L M N O P Q R S T U V W X Y Z