Song name
# A B C D E F G H I J K L M N O P Q R S T U V W X Y Z

This Wild Life - Pink Tie Acoustic tab

"Pink Tie"
D standard

INTRO
D |---------------------------------------------------------------------------------------------------|
A |----------7--------------------5--------------------3-p0--------------------3-p0-------------------|
F |-7-----------7--------6-----------6--------2--------------2--------2--------------2----------------|
C |----0-----------0--------0-----------0--------0--------------3--------0--------------3-------------|
G |---------------------------------------------------------------------------------------------------|
D |-7-----7-----------0--5-----5-----------0--3-----3--------------3--3-----3--------------0----------|

D |---------------------------------------------------------------------------------------------------|
A |----------7--------------------10-------------------3-p0--------------------3-p0-------------------|
F |-7-----------7--------11----------11-------2--------------2--------2--------------2----------------|
C |----0-----------0--------0-----------0--------0--------------3--------0--------------3-------------|
G |---------------------------------------------------------------------------------------------------|
D |-7-----7-----------0--10----10----------0--3-----3--------------3--3-----3--------------0----------|

CHORUS
I'll................wore..........................................promises.................failed...
D |-0--------------------3-----------------------3-----------------------2-----------------------0----|
A |-0--------------------3-----------------------3-----------------------3-----------------------2----|
F |-0--------------------0-----------------------0-----------------------2-----------------------2----|
C |-2--------------------0-----------------------0-----------------------0-----------------------2----|
G |-2--------------------2-----------------------2-----------------------0-----------------------0----|
D |-0-----------------2-p3-----------------------3-----------------------x-----------------------x----|

D |-------0-----------0-----------3-----------3-----------5-----------5-----------5-----7-----5-------|
A |----3-----3-----3-----3-----3-----3-----3-----3-----7-----7-----7-----7-----5-----5-----5-----5----|
F |-4-----------4-----------0-----------0-----------7-----------7-----------6-------------------------|
C |---------------------------------------------------------------------------------------------------|
G |---------------------------------------------------------------------------------------------------|
D |---------------------------------------------------------------------------------------------------|

VERSE
you're.............................breaking...............you're.................................not…
D |-x--------------x--------------------x--------------------x--------------------x-----------------x-|
A |-7--------------5--------------------3--------------------7--------------------10----------------3-|
F |-7--------------6--------------------2--------------------7--------------------11----------------2-|
C |-0--------------0--------------------0--------------------0--------------------0-----------------0-|
G |-x--------------x--------------------x--------------------x--------------------x-----------------x-|
D |-7--------------5--------------------3--------------------7--------------------11----------------3-|

BRIDGE
No................................thought.................no................................nowhere…
D |-x--------------x--------------------x--------------------2--------------------0-----------------3-|
A |-7--------------10-------------------12-------------------3--------------------2-----------------3-|
F |-7--------------11-------------------12-------------------2--------------------2-----------------0-|
C |-0--------------x--------------------12-------------------0--------------------2-----------------0-|
G |-x--------------9--------------------10-------------------0--------------------0-----------------2-|
D |-7--------------x--------------------x--------------------x--------------------x-----------------3-|

OUTRO
D |-------0-----12p0--------------------------------0-----------------0-----12p0----------------------|
A |-7-----10----------10----10----------3--------3-----3--------7-----10----------10----10-------3----|
F |-7-----11-------------11----11-------2--0-h2-----------0-----7-----11-------------11----11----2----|
C |-0-----0-----------------------0-----0-----------------------0-----0-----------------------0--0----|
G |-------------------------------------0--------------------------------------------------------0----|
D |-7-----------------------------------3-----------------------7--------------------------------3----|
Tap to rate this tab
# A B C D E F G H I J K L M N O P Q R S T U V W X Y Z