Song name
# A B C D E F G H I J K L M N O P Q R S T U V W X Y Z

This Will Destroy You - Threads tab

Eb||------------0-----------|------------4-----------|------------0------------|
Bb||------------------------|------------------------|-----4s2-----------------|
Gb||-----1s2----------------|-----2s4----------------|--------------------2----|
Db||------------------------|------------------------|-------------------------|
Ab||------------------------|--4---------------------|--0----------------------|
Eb||--0---------------------|------------------------|-------------------------|

         
---------0--------------||
------------------------||
--2s1-------------------||
------------2-----------||
------------------------||
--0---------------------||
Tap to rate this tab
# A B C D E F G H I J K L M N O P Q R S T U V W X Y Z