Song name
# A B C D E F G H I J K L M N O P Q R S T U V W X Y Z

This Will Destroy You - Leather Wings tab

"Leather Wings"


From the album "This Will Destroy You"
Copyright 2008 - Magic Bullet Records


TABBED EXCLUSIVELY FOR ULTIMATE-GUITAR.COM


Music:
Jeremey Gallindo
Chris King
Donovan Jones
Andrew Miller


NOTE: Here is Jeremy's part to Leather Wings. Pretty simple stuff; should
only take a couple of minutes to get this down. Still a great song,
nonetheless (the entire album was amazing, really).

Be sure to really embellish the slides on the A string. You'll know what I
mean if you're familiar with the song.

All bass notes played on the low E string are optional. They are not played
on the recording but I tabbed them in anyway. I personally feel it gives a
little more "depth" to the sound. Feel free to see which way you think
sounds better.

I can't be bothered to tab any of Chris' parts right now. If anyone else
would like to fire up their ebow and give it a shot, I'll add it to this and
give you full credit.


Any questions, comments, etc, feel free to drop me an e-mail at:
catastrophe.and.the.cure AT live DOT com

replace the "AT" and "DOT" with the appropriate symbols :)


LEATHER WINGS
Tuning: C# G# C# F# A# d# (low to high)


BASS NOTES ON LOW E (C#) ARE OPTIONAL

	[0:09]

|----------------------------------------------------------|
|----------------------------------------------------------|
|--6-------------6-------------6-------------6-------------|
|--------7-------------7-------------7-------------7-------|
|-----7-----7-------7-----7-------7-----7-------7-----7----|
|--7---------------------------7---------------------------|

|----------------------------------------------------------|
|----------------------------------------------------------|
|--2--------2--------2-------1-----1-----1-----1-----------|
|--------0--------0----------------------------------------|
|-----4--------4--------4-------2-----2-----2-----2////////|
|--4-------------------------2-----------2-----------------|


	[0:29]

|------------------------------------------------------------|
|------------------------------------------------------------|
|---6--------------6-------------6-------------6-------------|
|----------7-------------7-------------7-------------7-------|
|--(7)--7-----7-------7-----7-------7-----7-------7-----7----|
|---7----------------------------7---------------------------|


 ------------------------------------------------------------|
 ------------------------------------------------------------|
 --2--------2--------2-------1-----1-----1-----1------------.|
 --------0--------0-----------------------------------------.|
 -----4--------4--------4-------2-----2-----2-----2//////////|
 --4-------------------------2-----------2-------------------|


(repeat until 1:22, leaving out the slide on the A string)


	[1:22]

|---------------------------------------------------------------|
|---------------------------------------------------------------|
|--/2----2--------2---------2---------2----------2--------2-----|
|----------------------4---------4------------0--------0--------|
|------------------------------------------4--------4--------4//|
|---------------------------------------------------------------|

 ---------------------------------------------------------|
 ---------------------------------------------------------|
 ---6--------------6-------------1-----1-----1-----1-----.|
 ----------7-------------7-------------------------------.|
 --(7)--7-----7-------7-----7-------2-----2-----2-----2///|
 ---7-----------------------------------------------------|


	[1:59]

|----------------------------------------------------------|
|----------------------------------------------------------|
|---7----------7---------7---------7h9----6----------------|
|---------------------------------------------------7------|
|--(9)----9---------9---------9----------------7--------7--|
|---9--------------------9----------------7----------------|

 ----------------------------------------------------------|
 ----------------------------------------------------------|
 --6-------------------2--------------2--------------2-----|
 ------------7-------------------0--------------0----------|
 -------7---------7---------4--------------4---------------|
 ----------------------4-----------------------------------|

 ------------------------------------------------------------|
 ------------------------------------------------------------|
 --1---------1---------1---------1--------------------------.|
 -----------------------------------------------------------.|
 -------2---------2---------2---------2////////--------------|
 --2-------------------2-------------------------------------|

	[2:35]

|------------------------------------------------------------------|
|------------------------------------------------------------------|
|---11-----------11----------11----------11\9----6-----------------|
|----------------------------------------------------------7-------|
|--(12)----12----------12----------12-----------------7---------7--|
|---12-----------------------12------------------7-----------------|

 ------------------------------------------------------------|
 ------------------------------------------------------------|
 --6-------------------1---------1---------1---------1-------|
 ------------7-----------------------------------------------|
 -------7---------7---------2---------2---------2---------2--|
 ----------------------2-------------------2-----------------|

|------------------------------------------------------------|
|------------------------------------------------------------|
|--1---------1---------1---------1--------------------------.|
|-----------------------------------------------------------.|
|-------2---------2---------2---------2----------------------|
|--2-------------------2-------------------------------------|

 [3:11]

|---------|
|---------|
|----6----|
|---------|
|---------|
|----7----|


(Play once and fade out)


END
Tap to rate this tab
# A B C D E F G H I J K L M N O P Q R S T U V W X Y Z