Song name
# A B C D E F G H I J K L M N O P Q R S T U V W X Y Z

This Will Destroy You - Quiet tab

Band: This Will Destroy You
Album: Young Mountain
Track: Quiet
Tuning: Drop C#

Note: Here is full Jeremy's part. I am confident in the correctness of tabs 100% (I 
watch videos from TWDY shows)


  (00:38-02:16) - Use clean and long delay


|----------------------------------------------------------------|
|----------------------------------------------------------------|
|----9-9-9-9-9----9-7-------------------------------9-9-9-9-9----|
|----------------------------------------------------------------|
|----------------------------------------------------------------|
|----------------------------------------------------------------|


|----------------------------------------------------------------|
|----------------------------------------------------------------|
|----9-9-9-9-9----9-7-------------------------------9------------|
|----------------------------------------------------------------|
|----------------------------------------------------------------|
|----------------------------------------------------------------|


|----------------------------------------------------------------|
|----------------------------------------------------------------|
|----9-9-9-9-7----------------------------------11-11-11-11-7----|
|----------------------------------------------------------------|
|----------------------------------------------------------------|
|----------------------------------------------------------------|


|----------------------------------------------------------------|
|----------------------------------------------------------------|
|----9-9-9-9-9-9-9-9------9-7-----------------------9-9-9-9-7----|
|----------------------------------------------------------------|
|----------------------------------------------------------------|
|----------------------------------------------------------------|


|----------------------------------------------------------------|
|----------------------------------------------------------------|
|----11-11-11-11-11-11-11-11-----9-9-9-9--9-7-------9-9-9-9-7----|
|----------------------------------------------------------------|
|----------------------------------------------------------------|
|----------------------------------------------------------------|



  (02:16) - Use distortion and loud delay


|-------------------------------------------------------------------|
|-------------------------------------------------------------------|
|----7---------------11--------------9--------------7-------6-------|
|--------------------0---------------5--------------5---------------| 4x
|----9---------------0---------------5--------------5---------------|
|----9---------------0---------------5--------------5---------------|


  (03:23)


Play the same, but every chord with sixteenth notes.
Tap to rate this tab
# A B C D E F G H I J K L M N O P Q R S T U V W X Y Z