Song name
# A B C D E F G H I J K L M N O P Q R S T U V W X Y Z

This Years Anthem - My Friend Future tab

Sick freakin song you gotta learn it, this is some of the song for now.

h= hammer one or pulloff
/,\= slide up or down

D#------------------------------------------------------|
A#------------------------------------------------------|
F#-----------9h0----7h0----10h0----9h0----7h9-----------|
C#---5--7----------------------------------------7--3---|
B#---5--7----------------------------------------7--3---|
C#---5--7----------------------------------------7--3---|


D#------------------------------------------------------|
A#------------------------------------------------------|
F#------------------------------------------------------|
C#--7-7--77777--7-7-77777---3-3--3-3-3-3-3-3-3--------3-|
B#--7-7--77777--7-7-77777---3-3--3-3-3-3-3-3-3--------3-|
C#--7-7--77777--7-7-77777---3-3--3-3-3-3-3-3-3--------3-|

Verse 1

D#------------------------------------------------------|
A#------------------------------------------------------|
F#---------------------------9h0--7h0--5h0--7h0--5h0----|
C#----5------------------7------------------------------|
B#--x-5--xxxxxxxxxxxxx---7------------------------------|
C#--x-5------------------7------------------------------|


D#------------------------------------------------------|
A#------------------------------------------------------|
F#------------5h4-----9h0--7h0--9h0--10h0--9h0--7h9-----|
C#-----------------7------------------------------------|
B#-----------------7------------------------------------|
C#-----------------7------------------------------------|

Verse 2


D#----------------------|
A#----------------------|
F#----------------------|
C#--x-3-----------------|
B#--x-3-xxxxxxxxxxxxx---|  Then the rest is like verse 1
C#--x-3-----------------|

Chorus

D#------------------------------------------------------|
A#--------8------------------------------8--------------|
F#-----5-----5-----5----(2 times)-----5-----5-----------|   (2 times)
C#--------------7---------------------------------5-----|
B#--0------------------------------8-----------8--------|
C#------------------------------------------------------|


D#--8--7---------------------|
A#--------8\6--8--6--8/10----|
F#---------------------------|
C#---------------------------|
B#---------------------------|
C#---------------------------|

Band myspace @ http://www.myspace.com/thisyearsanthem
Tap to rate this tab
# A B C D E F G H I J K L M N O P Q R S T U V W X Y Z