Song name
# A B C D E F G H I J K L M N O P Q R S T U V W X Y Z

Thom Yorke - Analyse tab

Artist: thom yorke
Song: analyse
Album: eraser
Tunning: e b g C A D (high to low)
Tabbed By: INDIE NATION

Just listen to the song for the rythmes
hope you all enjoy
cause thom's one of the best
song writers of the last 20 years

Main Part

E*----8-----8-----8-----8----|
B*----8-----8-----8-----8----|
G*----0----10-----9----10----|
C*----0-----0-----0-----0----|
A*----x-----x-----x-----x----|
D*---10----10----10----10----|

End part

E*---------------------------|
B*---------------------------|
G*----8-----7-----1-----0----|
C*----0-----0-----0-----0----|
A*----x-----x-----x-----x----|
D*---10-----8-----3-----3----|

cheers, INDIE NATION
Tap to rate this tab
 
# A B C D E F G H I J K L M N O P Q R S T U V W X Y Z