Song name
# A B C D E F G H I J K L M N O P Q R S T U V W X Y Z

Thom Yorke - Atoms For Peace tab

-------------------------------------------------------------------------------
			     Atoms For Peace - Thom Yorke
-------------------------------------------------------------------------------
Tabbed by:Willistabs
Email:maxwillis@yahoo.co.uk

Tuning:EADGBe

There are a few notes which are too low for standard tuning, and sounds silly 
played higher, so i left them out

e|--------------------------------------------------------------------------|
B|--------------------------------------------------------------------------|
G|--------------------------------------------------------------------------|
D|---------------6---------------6---------------------------6--------------|
A|------6------------6-------6------6------------6--------------------------|
E|--4-------8------------4--------------8-------------8-----------8---------|

e|--------------------------------------------------------------------------|
B|--------------------------------------------------------------------------|
G|--------------------------------------------------------------------------|
D|------------6-------------------------------------------------------------|
A|-6------6------6----------------------------------------------------------|
E|-----6------------6-------------------------------------------------------|


The Solo:

e|--------------------------------------------------------------------------|
B|--------------------------------------------------------------------------|
G|--------------------------------------------------------------------------|
D|--------------------------------------------------------------------------|
A|--4-4---4--4--3------------------------------------------------------| (x2)
E|--------------------------------------------------------------------------|


e|--------------------------------------------------------------------------|
B|--------------------------------------------------------------------------|
G|--------------------------------------------------------------------------|
D|--------------------------------------------------------------------------|
A|--4-4---4--4-4-3----4-4---4--4-4-3----------------------------------------|
E|-----------------------------------4--------------------------------------|

Then the start plays again once or twice whilst fading out :)

This is a beautiful song, and i really wanted to tab it correctly, any mistakes 
please feel free to contact me :)
Tap to rate this tab
 
# A B C D E F G H I J K L M N O P Q R S T U V W X Y Z