Thom Yorke - Atoms For Peace tab

First tab...

Pretty easy to play after you memorize it and the weird timing.  Obviously sounds best 
as a synth, but works with a guitar, sounds best to me while playing with a light palm mute.

Drop D tuning:



e|--------------------------------------------------------------------|
B|--------------------------------------------------------------------|
G|--------------------------------------------------------------------|
D|-----------------6---------------------6----------------------------|
A|------6-----3--------6------------6---------6-------3---------------|
D|--6--------------------------6--------------------------------------|


e|--------------------------------------------------------------------|
B|--------------------------------------------------------------------|
G|--------------------------------------------------------------------|
D|-----------------------6-------------------------6------------------|
A|----------6-----3-----------3----6----1----6----------6-------------|
D|---1---------------------------------------------------------8------|
Tap to rate this tab
 
# A B C D E F G H I J K L M N O P Q R S T U V W X Y Z