Song name
# A B C D E F G H I J K L M N O P Q R S T U V W X Y Z

Thomas Bergersen - Remember Me tab

Chords: C - A - G-D - F

E-|-------------------------------------------|
B-|----------1-----0--------------------------|
G-|-0---0----------------2-----0--------------|
D-|----------------------------------3-----2--|   x2
A-|---3---3-----3-----3-----3-----3-----3-----|
E-|-------------------------------------------|

E-|-------------------------------------------|
B-|----------1-----0--------------------------|
G-|-0---0----------------2-----0--------------|
D-|----------------------------------3-----2--|   x2
A-|---0---0-----0-----0-----0-----0-----0-----|
E-|-------------------------------------------|

E-|-------------------------------------------|
B-|----------1-----0--------------------------|
G-|-0---0----------------2-----0--------------|
D-|----------------------------------3-----2--|   x2
A-|-------------------------------------------|
E-|---3---3-----3-----3-----3-----3-----3-----|

E-|--------------3-----0-----0-----0--------|
B-|--------------------------------------3--|
G-|-----------------------------------------|
D-|-----------------------------------------|   x2
A-|--3-----3--------------------------------|
E-|-----1-----1-----1-----1-----1-----1-----|

That's smth like intro melody. Next parts are playing like this, but with adding more instruments.
Web-site: www.thomasbergersen.com
Tap to rate this tab
# A B C D E F G H I J K L M N O P Q R S T U V W X Y Z