Song name
# A B C D E F G H I J K L M N O P Q R S T U V W X Y Z

Thomas Cunningham - Swell tab

I doubt many people will see this tab but its a shame cause its such a great song

Chorus and verse
   1   2   3   4   1   2   3   4   1   2   3   4   1   2   3   4
e|-3---x--0--0-x-0-0-0-x--3--3-x-3-3---x--0--0-x-0-0-0-x--3--3-x-3-|
B|-3---x--1--1-x-1-1-1-x--0--0-x-0-3---x--1--1-x-1-1-1-x--0--0-x-0-|
G|-0---x--0--0-x-0-2-2-x--0--0-x-0-0---x--0--0-x-0-2-2-x--0--0-x-0-|
D|-0---x--2--2-x-2-2-2-x--0--0-x-0-0---x--2--2-x-2-2-2-x--0--0-x-0-|
A|-2---x--3--3-x-3-0-0-x--2--2-x-2-2---x--3--3-x-3-0-0-x--2--2-x-2-|
E|-3---x-------x-------x--3--3-x-3-3---x-------x-------x--3--3-x-3-|


With love part
   1   2   3   4   1   2   3   4   1   2   3   4   1   2   3   4
e|-0-0-x--3--3-x-3-0-0-x--3--3-x-3-0---x--0--0-x-0-0---x-----------|
B|-1-1-x--0--0-x-0-1-1-x--0--0-x-0-1---x--1--1-x-1-1---x-3-8--7--5-|
G|-2-2-x--0--0-x-0-2-2-x--0--0-x-0-2---x--2--2-x-2-0---x-0-0--0--0-|
D|-2-2-x--0--0-x-0-2-2-x--0--0-x-0-2---x--2--2-x-2-2---x-0-0--0--0-|
A|-0-0-x--2--2-x-2-0-0-x--2--2-x-2-0---x--0--0-x-0-3---x-----------|
E|-----x--3--3-x-3-----x--3--3-x-3-----x-------x-------x-----------|

bridge (after with love part)
   1   2   3   4   1   2   3   4
e|-3---x-3-3---x-3-3---x-----------|
B|-3---x-3-3---x-3-3---x-3-8--7--5-|
G|-0---x-0-0---x-0-0---x-0-0--0--0-|
D|-0---x-0-0---x-0-0---x-0-0--0--0-|
A|-2---x-2-2---x-2-2---x-----------|
E|-3---x-3-3---x-3-3---x-----------|
Tap to rate this tab
# A B C D E F G H I J K L M N O P Q R S T U V W X Y Z