Song name
# A B C D E F G H I J K L M N O P Q R S T U V W X Y Z

Thomas Cunningham - Movin On tab

Intro/Verse:
-2-3-3p2p0-----------------------3------------2--|
-3----------3------2-2h3p2-------3-3/5\3------3--|
-2-----------------2-2-----------0------------2--|
-0-----------------2-2-----------0---------0-----|
-----------------0---0-----------2---------------|
-------------------------------3-----------------|
"Can't say that I'm right here..."

Pre-Chorus:
-5----5-----------3------------------|
-5----7-----------3------------------|
-6----7-----------4------------------|
-7----7-----------5------------------|
-7----5-----------5------------------|
-5----------------3------------------|
"Take me for the fool that I just might be..."

Chorus:
-0---------3--------|
-2---------3--------|
-2---------0--------|
-2---------0--------|
-0---------2--------|
-----------3--------|
"Would you care to pass the time..."
Tap to rate this tab
# A B C D E F G H I J K L M N O P Q R S T U V W X Y Z