Guitaretab - guitar tabs
Song name
# A B C D E F G H I J K L M N O P Q R S T U V W X Y Z

Thomas Dybdahl - John Wayne tab

                                    -Only ones-
E---------------------------------------------------|
B-3p1-----1---------1p0-3p1-----1-----0h1-0h1-3p1---|
G-------2---2---0h2-----------2---2---0h2-0h2-------|
D-----0-------0-------------0-------0---------------|
A---------------------------------------------------|
E---------------------------------------------------|



[ Tab from: http://www.guitaretab.com/t/thomas-dybdahl/165061.html ]
E---------------------------------------------------|
B--------1----------1p0-3p1-----1---------1p0-3p1---|
G------2---2---0h2------------2---2---0h2-----------|
D----0-------0--------------0-------0---------------|
A---------------------------------------------------|
E---------------------------------------------------|

And just repeat that... 
                                                       

Related for John Wayne tab
Advertisement will be closed in 10 seconds