Song name
# A B C D E F G H I J K L M N O P Q R S T U V W X Y Z

Thomas Dybdahl - Adelaide tab

Chords used:

Fmaj7 : x33210
C     : x32010
G     : 320003 of 355340 
C/G   : 332010


Fingerpick the chords like this:

Fmaj7			 C 	   G           G
e:----0-------0-----|----0-----|----3-----|-------0------|
B:------1-------1---|------1---|------0---|----------3---|
G:--------2-------2-|--------0-|--------0-|------------4-|
D:--3---------------|----------|----------|-3s5----------|
A:----------3-------|-3--------|----------|--------------|
E:------------------|----------|-3--------|--------------|

C/G
e:---0--------0-----|
B:-----1--------1---|
G:-------0--------0-|
D:------------------|
A:-3----------------|
E:----------3-------|

Intro:

Fmaj7

Verse 1:

Fmaj7
yesterday it seemed life was just a dream
        C
a bad dream
    Fmaj7
you watch them all day long
				  C 	  Fmaj7
feel you don't belong but you're wrong


Chorus:

G            Fmaj7
 life is good today
Fmaj7                       C
had a pretty boy look your way
C               G 
don't worry Adelaide
G            Fmaj7
 life is good today
Fmaj                        C
had a pretty boy look your way
C               Fmaj7
don't worry Adelaide
    C         Fmaj7
Adelaide


you see the other girls
a strand of perfect pearls
and one day the sun will shine upon your face and you will find
someone beautiful

Chorus

and one day the sun will shine upon your face and you will find
you're beautiful

Chorus

Fmaj7 C/G Fmaj7
Adelaide

Fmaj7 C/G Fmaj7
Adelaide

Fmaj7
Tap to rate this tab
# A B C D E F G H I J K L M N O P Q R S T U V W X Y Z