Song name
# A B C D E F G H I J K L M N O P Q R S T U V W X Y Z

Thomas Dybdahl - Cecilia tab

Just play the tab and after a few times it will work;)

e|-----0---0----0--------------------0----------0------0----------------|
B|-----1---1----1--------------------1----------1------5----------------|
G|-----0---0----0--------------------0----------0------0----------------|
D|-----2---0----2--------------------2----------2------6----------------|
A|-----3---3----3--------------------0----------0------7----------------|
E|-----3---3----3--------------------3----------0------7----------------|

  Cecilia,           You didn`t wanna give your heart away

e|----------0----0--0----0---------0-----0--0--0------------------------|
B|----------1----1--1----1---------1-----1--1--1------------------------|
G|----------2----0--2----2---------0-----4--4--4------------------------|
D|----------3----3--3----3---------2-----2--0--2------------------------|
A|----------3----3--3----3---------0-----0--0--0------------------------|
E|----------0----0--0----0---------3-----0--0--0------------------------|
  
  You tear apart,       angel eyes like bluebells
  Trembling hearts,     leave your empty shells

e|0-----0---0----0---------------------0----------0------0--------------|
B|5-----1---1----1---------------------1----------1------5--------------|
G|0-----0---0----0---------------------0----------0------0--------------|
D|6-----2---0----2---------------------2----------2------6--------------|
A|7-----3---3----3---------------------0----------0------7--------------|
E|7-----3---3----3---------------------3----------0------7--------------|

    Cecilia,           You didn`t wanna give your heart away
    Cecilia,           You didn`t wanna leave it all behind

e|----1-1------5-------0---------------0----0---------------------------|
B|----0-0------6-------5---------------5----5---------------------------|
G|----0-0------5-------0---------------0----0---------------------------|
D|----0-2------x-------6---------------0----6---------------------------|
A|----2-3------x-------7---------------7----7---------------------------|
E|----3-0------x-------7---------------7----7---------------------------|
     
      Here   I am      Flesh and bones
      Here   I am      Flesh and bones

e|--------0---0--0----0-----------------0-----0----0--0-----------------|
B|--------1---0--1----1-----------------1-----1----1--1-----------------|
G|--------2---2--2----2-----------------0-----4----4--4-----------------|
D|--------3---3--3----3-----------------2-----2----0--2-----------------|
A|--------3---3--3----3-----------------0-----0----0--0-----------------|
E|--------0---0--0----0-----------------3-----0----0--0-----------------|

    Did he touch you?      Shameful and disgraced?
    Did he rob your           =joy of the embrace?


e|0-----0---0----0---------------------0----------0------0--------------|
B|5-----1---1----1---------------------1----------1------5--------------|
G|0-----0---0----0---------------------0----------0------0--------------|
D|6-----2---0----2---------------------2----------2------6--------------|
A|7-----3---3----3---------------------0----------0------7--------------|
E|7-----3---3----3---------------------3----------0------7--------------|

    Cecilia,           You didn`t wanna give your heart away
    Cecilia,           You didn`t wanna leave it all behind

e|----1-1------5-------0---------------0----0---------------------------|
B|----0-0------6-------5---------------5----5---------------------------|
G|----0-0------5-------0---------------0----0---------------------------|
D|----0-2------x-------6---------------0----6---------------------------|
A|----2-3------x-------7---------------7----7---------------------------|
E|----3-0------x-------7---------------7----7---------------------------|
      
      Here   I am      Flesh and bones
      Here   I am      Flesh and bones



If there is a mistake, let me know!






Tap to rate this tab
 
# A B C D E F G H I J K L M N O P Q R S T U V W X Y Z