Song name
# A B C D E F G H I J K L M N O P Q R S T U V W X Y Z

Thomas Fersen - Borborygmes Acoustic tab

-------------------------------------------------------------------------------
                            Borborygmes - Thomas Fersen
-------------------------------------------------------------------------------
Tabbed by: The_BoneLESS
E-mail: elastomaster@gmail.com

Tuning: Standard (EADGBe)
Capo: 3rd fret (All chords are relative to capo)

This is a tab of my favorite version of the song, acoustic with Pierre Sangra.
Available here: http://www.youtube.com/watch?v=oLrOyyGwaak

The picking pattern is pretty much alternating between upstrums and downstrums.
Focus on the higher strings with upstrums and on the lower strings with the
downstrums during the verses as illustrated below.

There are a few subtleties and embellishments that I haven't tabbed, I really
wanted to tab the core structure of the song. You'll find it's close enough!

======================
--- Song structure ---
======================

  1. Intro
  2. Verse 1
  3. Chorus
  4. Verse 2
  5. Chorus
  6. Verse 3
  7. Chorus (no repeat, played only once)


=============
--- INTRO ---
=============

        Em      F       Em                Em      F       Em                Em

e|--0-|---0---0---1---0---------------0-|---0---0---1---0-----------------|-0-0-0---|
B|--0-|---0---0---1---0---------------0-|---0---0---1---0-----------------|-0-0-0---|
G|----|-0---0---2---2---0---------------|-0---0---2---2---0---------------|-0-0-0---|
D|----|-2---2---3---3---2---------------|-2---2---3---3---2---------------|-2-2-2---|
A|----|-2---2---3---3---2---------------|-2---2---3---3---2---------------|-2-2-2---|
E|----|-0---0---1---1---0---------------|-0---0---1---1---0---------------|-0-0-0---|

    U   D U D U D U D U D             U   D U D U D U D U D                 D U D


===============
--- VERSE 1 ---
===============

         Em      F       Em                G       Am      C

e||--0-|---0---0---1---0---0---0---0---0-|---3---0---0---0---0---0---0---0-|
B||.-0-|---0---0---1---0---0---0---0---0-|---0---0---1---1---1---1---1---1-|
G||----|-0---0---2---2---0---0-------0---|-0---0---2---2---0---0-----------|
D||.---|-2---2---3---3---2---2-------2---|-0---0---2---2---2---2-----------|
A||----|-2---2---3---3---2---2-------2---|-2---2---0---0---3---3---2-------|
E||----|-0---0---1---1---0---0-------0---|-3---3---x---x---x---x-------3---|

     U   D U D U D U D U D U D U   U D U   D U D U D U D U D U D U D U D U



    Am      C       Em                Am      F#      B7            (2x)

e|----0---0---0---0---0---0---0---0-|---0---0---2---0---2---2---2-----||
B|----1---1---1---0---0---0---0---0-|---1---0---2---0---0---0---0----.||
G|--2---2-----------0---0-------0---|-2---2---3---3---2---2-------2---||
D|--2---2-----------2---2-------2---|-2---2---4---4---1---1-------1--.||
A|--0---0---3---2---2---2-------2---|-0---0---4---4---2---2-------2---||
E|--x---x-----------0---0-------0---|-x---x---2---2---x---x-------x---||

    D U D U D U D U D U D U   U D U   D U D U D U D U D U D U   U D


===============
--- VERSE 2 ---
===============

         Em      F       Em                G       Am      C

e||--0-|---0---0---1---0---0---0---0---0-|---3---0---0---0---0---0---0---0-|
B||.-0-|---0---0---1---0---0---0---0---0-|---0---0---1---1---1---1---1---1-|
G||----|-0---0---2---2---0---0-------0---|-0---0---2---2---0---0-----------|
D||.---|-2---2---3---3---2---2-------2---|-0---0---2---2---2---2-----------|
A||----|-2---2---3---3---2---2-------2---|-2---2---0---0---3---3---2-------|
E||----|-0---0---1---1---0---0-------0---|-3---3---x---x---x---x-------3---|

     U   D U D U D U D U D U D U   U D U   D U D U D U D U D U D U D U D U



    Am      C       Em                 Am      F#      B7            (2x)

e|----0---0---0---0---0----0---0---0-|---0---0---2---0---2---2---2-----||
B|----1---1---1---0---0----0---0---0-|---1---0---2---0---0---0---0----.||
G|--2---2-----------0------------0---|-2---2---3---3---2---2-------2---||
D|--2---2-----------2--------2---2---|-2---2---4---4---1---1-------1--.||
A|--0---0---3---2---2---0h2------2---|-0---0---4---4---2---2-------2---||
E|--x---x-----------0------------0---|-x---x---2---2---x---x-------x---||

    D U D U D U D U D U D  U D U D U   D U D U D U D U D U D U   U D



===============
--- VERSE 3 ---
===============

        Em      F       Em                 G       Am      C

e|--0-|---0---0---1---0---0----0---0---0-|---3---0---0---0---0---0---0---0-|
B|--0-|---0---0---1---0---0----0---0---0-|---0---0---1---1---1---1---1---1-|
G|----|-0---0---2---2---0------------0---|-0---0---2---2---0---0-----------|
D|----|-2---2---3---3---2--------2---2---|-0---0---2---2---2---2-----------|
A|----|-2---2---3---3---2---0h2------2---|-2---2---0---0---3---3---2-------|
E|----|-0---0---1---1---0------------0---|-3---3---x---x---x---x-------3---|

    U   D U D U D U D U D U D  U D U D U   D U D U D U D U D U D U D U D U



    Am      C       Em                 Am      F#      B7

e|----0---0---0---0---0----0---0---0-|---0---0---2---0---2---2---2-----|
B|----1---1---1---0---0----0---0---0-|---1---0---2---0---0---0---0-----|
G|--2---2-----------0------------0---|-2---2---3---3---2---2-------2---|
D|--2---2-----------2--------2---2---|-2---2---4---4---1---1-------1---|
A|--0---0---3---2---2---0h2------2---|-0---0---4---4---2---2-------2---|
E|--x---x-----------0------------0---|-x---x---2---2---x---x-------x---|

    D U D U D U D U D U D  U D U D U   D U D U D U D U D U D U   U D


==============
--- CHORUS ---
==============

         Em       Am      Em                 Am      G       B7

e||--0-|-0-0----0-0-0-0-0-0-0----0---0---0-|---0---0---3---0---2---2---2---0-|
B||.-0-|-0-0----0-1-1-1-0-0-0----0---0---0-|---1---0---0---0---0---0---0---0-|
G||----|-0--------2---2---0------------0---|-2---2---0-------2---2-------2---|
D||.---|-2--------2---2---2--------2---2---|-2---2---0---0---1---1-------1---|
A||----|-2---0h2--0---0---2---0h2------2---|-0---0---2---2---2---2-------2---|
E||----|-0--------x---3---0------------0---|-x---x---3---3---x---x-------x---|

     U   D U D  U D U D U D U D  U D U D U   D U D U D U D U D U D U   U D U


    Em       Am      Em                 Am      F#      B7           (2x)

e|--0-0----0-0-0-0-0-0-0----0---0---0-|---0---0---2---0---2---2---2----||
B|--0-0----0-1-1-1-0-0-0----0---0---0-|---1---0---2---0---0---0---0---.||
G|--0--------2---2---0------------0---|-2---2---3---3---2---2-------2--||
D|--2--------2---2---2--------2---2---|-2---2---4---4---1---1-------1-.||
A|--2---0h2--0---0---2---0h2------2---|-0---0---4---4---2---2-------2--||
E|--0--------x---3---0------------0---|-x---x---2---2---x---x-------x--||

    D U D  U D U D U D U D  U D U D U   D U D U D U D U D U D U   U D


============
--- NOTE ---
============

Pierre Sangra plays the B7 chord like this on at least one occasion.

e|-2-|
B|-4-|
G|-2-|
D|-4-|
A|-2-|
E|-x-|


************************************

| /   slide up
| \   slide down
| h   hammer-on
| p   pull-off
| ~   vibrato
| +   harmonic
| x   Mute note
| b   Bend
| pb  Pre-bend
| br  Bend release
| pbr Pre-bend release
| brb Bend release bend

************************************
Tap to rate this tab
# A B C D E F G H I J K L M N O P Q R S T U V W X Y Z