Song name
# A B C D E F G H I J K L M N O P Q R S T U V W X Y Z

Thomas Helmig - Stupid Man chords

Highlighted       Show chord diagrams
	1. verse:

	F         C
	Dying to please
	F         C
	dying to serve
	Dm              Am
	I couldn't break out
	G                C
	didn't have the nerve
	F     C
	loverman 
	F              C
	at anyones command 
	   Dm        Am
	I woke up lonely
	G                  C
	with a glass in my hand
         Bb               C            F C Dm
	And you found me when my circus was in town
 	      Bb            C
	Hallelujah for the singing clown


	Chorus:

	  Dm    C
	Walk with me
	  Bb    F
	take my hand
	  Bb
	spend a night
	  C     F
	with the stupid man
	  Dm    C
	I am yours
	  Bb    F
	if you can
	  Bb
	fall in love
	  C     F
	with the stupid man


	2.verse:

	F         C
	Helpless soul
	F         C
	in a web of love
	Dm              Am
	I didn't get a thing
	G                C
	I couldn't get enough
	F         C
	drunken tears 
	F         C
	from paranoid eyes
	Dm        Am
	promises 
	G         C
	came out lies
	         Bb               C             F  C  Dm
	And you found me when my ship was about to go down
	       Bb            C
	And you carried me back on solid ground


	Chorus:

	  Dm    C
	Walk with me
	  Bb    F
	take my hand
	  Bb
	spend a night
	  C     F
	with the stupid man
	  Dm    C
	I am yours
	  Bb    F
	if you can
	  Bb
	fall in love
	  C     F
	with the stupid man

	Bridge:

	  Dm    C  Bb    F
	Scrap book memories
	  Bb        C     F
	from a life that has been dead 
	  Dm    C                Bb    F
	tells me there is no one to blame and therefore
	  Bb   C     F
	no one to forgive


	Solo:

E|--------------------------------------------------||
B|--------------------------------------------------||
G|--12b14 12b14-------12p10-----10h12-10------------||
D|-------------------------12p10--------------------||
A|--------------------------------------------------||
E|--------------------------------------------------||

E|--------------------------------------------------||
B|--13b15--13p10------------------------------------||
G|--------------12p10--------10h12 10 10s>0---------||
D|-------------------12p10-10-----------------------||
A|--------------------------------------------------||
E|--------------------------------------------------||

E|--------------------------------------------------||
B|--8b10-8p6---8b10-8p6---8b10-8p6---8b10-8p6-------||
G|----------7----------7----------7----------7------||
D|--------------------------------------------------||
A|--------------------------------------------------||
E|--------------------------------------------------||

E|-----------------------12b10--10h12p10------------||
B|-10b12---8b10-8p6--6------------------10h12p10----||
G|-----------------7----------------------------10--||
D|--------------------------------------------------||
A|--------------------------------------------------||
E|--------------------------------------------------||



	Chorus:

	  Dm    C
	Walk with me
	  Bb    F
	take my hand
	  Bb
	spend a night
	  C     F
	with the stupid man
	  Dm    C
	I am yours
	  Bb    F
	if you can
	  Bb
	fall in love
	  C     F
	with the stupid man


-------------------------------------------------------------------------

	Fills through Verses:

E|------------------------------------------------||
B|------------------------------------------------||
G|---3-3s2-0--------------------------------------||
D|-----------3------------------------------------||
A|------------------------------------------------||
E|------------------------------------------------||

						or

E|------------------------------------------------||
B|------------------------------------------------||
G|---3-3s2-0--------------------------------------||
D|---3-3s2-0--3-----------------------------------||
A|------------3-----------------------------------||
E|------------------------------------------------||

Tabbed By:

Christian Pedersen @2011
Tap to rate this tab
 
# A B C D E F G H I J K L M N O P Q R S T U V W X Y Z