Song name
# A B C D E F G H I J K L M N O P Q R S T U V W X Y Z

Thomas Helmig - Nu Hvor Du Har Brandt Mig Af tab

  |Nu hvor du har brændt mig af|
                /
         |Thomas Helmig|

This song is played with Distortion, but you have to listen to the song so you can figur it out. :-)

Intro:

E|-------------------------------|
B|-7--7--7--10--7----------------|
G|-----------------9--7--9--7----|
D|-----------------------------9-|
A|-------------------------------|
E|-------------------------------|

E|-------------------------------|
B|-7--7--7--10--7----------------|
G|-----------------9--7--9--7----|
D|-----------------------------9-|
A|-------------------------------|
E|-------------------------------|

E|-------------------------7--10-|
B|-10--10--10--10--10--10--------|
G|-------------------------------|
D|-------------------------------|
A|-------------------------------|
E|-------------------------------|

E|-------------------------------|
B|-7--7--7--10--7----------------|
G|-----------------9--7--9--7----|
D|-----------------------------9-|
A|-------------------------------|
E|-------------------------------|

here is the lyric:

Nu hvor du har brændt mig af
Nu hvor du har smidt mig væk
nu hvor du har stukket n´mig ned bagfra
har du det godt så, og er du glad igen.

Nu hvor du har brugt mine penge
nu hvor du har suget alt,
hvad der minder kraft ud af mig
nu hvor du har gjort mig til grin
har du det godt så, og er du glad igen.

Forstå mig ret det er ikke fordi,
at jeg ikke har noget godt at sige
det kommer nok en dag
når fornuften vender tilbage
Men når jeg nu savner dig
hvordan kan du så undvære mig

Forstå mig ret det er ikke fordi,
at jeg ikke har noget godt at sige
det kommer nok en dag
når fornuften vender tilbage
Men når jeg nu savner dig
hvordan kan du så undvære mig

My mail is: acer.123@hotmail.com if there is something rong or any coments
Tap to rate this tab
# A B C D E F G H I J K L M N O P Q R S T U V W X Y Z