Song name
# A B C D E F G H I J K L M N O P Q R S T U V W X Y Z

Thomas Rhett - Beer With Jesus tab

Beer With Jesus by Thomas Rhett intro tab
Capo: 1st Fret
Tabbed By: Chase Dunneback
Not Perfect but enjoy!

(/) Slide Up  (\) Slide Down  (h) Hammer On  (p) Pull Off  (b) Bend (r) Release (v) Vibrato


E|-----------------------------------------------------------------------------------------|
B---------------------3---------------------------------3----------------------------------|
G|------------------------0---------------------------------0------------------------------|
D|-----------------------------------------------------------------------------------------|
A|---------2------------------------------2-----------------------------2p--3h-------------|
E|------3------------------------------3---------------------------------------------------|

E|---------------------------------------------------------------------------------------|
B|-------3-------------------------3-------------------------------------3---------------|
G|-----------0-----------------2------2--------------------------------------0-----------|
D|-------------------------0------------0------------------------------------------------|
A|-------------------------------------------------------------2-------------------------|
E|---------------------------------------------------------3-----------------------------|


E|------------------------------------------------------------------------------------|
B---------------------3----------------------------3-------------------------3--------|
G|------------------------0-----------------------------0----------------2-------2----|
D|-------------------------------------------------------------------0-------------0--|
A|---------2------------------------2p--3h--------------------------------------------|
E|------3-----------------------------------------------------------------------------|



http://www.guitartabcreator.com
Tap to rate this tab
# A B C D E F G H I J K L M N O P Q R S T U V W X Y Z