Song name
# A B C D E F G H I J K L M N O P Q R S T U V W X Y Z

Thomas Rhett - It Goes Like This tab

Tuning: Half-Step Down 

Intro:

E---------------------------------------------------------------------------|
B----/10-----\8-----\6----------------------/10-----\8------\6--------------|
G------------------------/9----\7----\5-------------------------7-/9---\5---|
D---------------------------------------------------------------------------|
A---------------------------------------------------------------------------|
E---------------------------------------------------------------------------|

First Verse:

E-------------------------------------|
B-----------8-------------------------|
G------5--------5-----5---------------| x15 
D---7-----7--------7------------------|
A-------------------------------------|
E-------------------------------------|


E------|
B---8--|
G---5--| Stream this chord at the end of verse.  
D---7--|
A------|
E------|

Chorus: 

 Am    F                C   G
And it goes like ooh, what I wouldn't do
            Am                  F                               C          G
To write my name on your heart, get you wrapped in my arms baby all around you.
               Am   F                C    G
And it goes like hey, girl I'm blown away,
       Am                        F                       C         G
Yea it starts with a smile and it ends with an all night long slow kiss,
              Am       F       Am       F
Yea it goes like this.

E----------------------------------------|
B----/10-----\8------\6------------------|
G--------------------------7---/9-----\5-|
D----------------------------------------|
A----------------------------------------|
E----------------------------------------|

Verse 2: 

Am           F                       Am         F
Hey girl, you make me wanna drive you home,
Am            F                       Am         F
Get you outta here and get you all alone.
Am                      F                       Am                    F
I don't know what it is about you, baby, But I'm all messed up and it might sound crazy,
Am           F                       Am         F
But you make me wanna write a song.


Repeat Chorus 

Solo: 

E------------------------------------------------------------|
B----5h6-/10-6p5-----b12-12----5h6-/10-6p5----b15-15-13-15---|
G------------------------------------------------------------|
D------------------------------------------------------------|
A------------------------------------------------------------|
E------------------------------------------------------------|

Bridge: 

F                                 G
Lookin' at you lookin' at me that way,
F                                     G
Makes me wanna grab my old guitar and play

Riff at the end of the bridge:

E----------------------------------------|
B-------8--------------------------------|
G---/9-----7---9-b9-9--------------------|
D----------------------------------------|
A----------------------------------------|
E----------------------------------------|

Repeat Chorus

Outro:

               Am   F                Am   F
And it goes like ooh, and it goes like hey,
                 Am   F      
And it ends with a kiss,
              Am   F
Yea it goes like this.

Lead guitar plays intro riff over outro. 


Thanks guys, this is my first tab and I think it's almost 100% accurate. 
Tap to rate this tab
 
# A B C D E F G H I J K L M N O P Q R S T U V W X Y Z