Song name
# A B C D E F G H I J K L M N O P Q R S T U V W X Y Z

Thompson Square - Glass tab

Thompson Square
Glass

Standard Tuning
CAPO 1

    C   G   Am   F
e|--0---3---0----x--|
B|--1---3---1----1--|
G|--0---0---2----2--|
D|--2---0---2----3--|
A|--3---2---0----3--|
E|--3---3---0----x--|



Intro
e|----------------------------------------------------------------------|
B|----------------------------------------------------------------------|
G|-5---7---9---9---9--4---2---2---2---4---5---5---5---6--2---2---2-2-2--|
D|----------------------------------------------------------------------|
A|----------------------------------------------------------------------|
E|-5-5-7-7-8-8-8-8-8--3-3-1-1-1-1-1-1-3-3-5-5-5-5-5-5-6--1-1-1-1-1-1-1--|

Verse 1
e|----------------------------------------------------------------------|
B|----------------------------------------------------------------------|
G|-5---7---9---9---9--4---2---2---2---4---5---5---5---6--2---2--5---7---|
D|----------------------------------------------------------------------|
A|----------------------------------------------------------------------|
E|-5-5-7-7-8-8-8-8-8--3-3-1-1-1-1-1-1-3-3-5-5-5-5-5-5-6--1-1-1--5-5-7-7-|

e|------------------------------------------------------------------------|
B|----------------------------------------------------------------0-1-0---|
G|-9---9---9--4---2---2---2---4---5---5---5---6--2---2---2---2--0-------0-|
D|------------------------------------------------------------------------|
A|------------------------------------------------------------------------|
E|-8-8-8-8-8--3-3-1-1-1-1-1-1-3-3-5-5-5-5-5-5-6--1-1-1-1-1-1-1------------|

Trying to live and love with a heart that can't be broken

Is like trying to see the light with eyes that can't be opened

Yeah we both carry baggage we picked up on our way

So if you love me do it gently and I will do the same


Chorus
       C             G
We may shine, we may shatter
          Am                             F
We may be picking up the pieces here on after
       C               G
We are fragile, we are human
       Am                         F
We are shaped by the light we let through us
       G
But we break fast cause we are glass

                         we are glass
e|------------------------------------------------------------|
B|------------------------------------------------------------|
G|-9-9-9----4---2-2-2-0-----------------9-9-9----4---2-2-2-0--|
D|------------------------------------------------------------|
A|------------------------------------------------------------|
E|-8-8-8----3---1-1-1-1-----------------8-8-8----3---1-1-1-1--|

Verse 2
e|----------------------------------------------------------------------|
B|----------------------------------------------------------------------|
G|-5---7---9---9---9--4---2---2---2---4---5---5---5---6--2---2--5---7---|
D|----------------------------------------------------------------------|
A|----------------------------------------------------------------------|
E|-5---7---8-8-8-8-8--3-3-1-1-1-1-1-1-3-3-5-5-5-5-5-5-6--1-1-1--5-5-7-7-|

e|------------------------------------------------------------------------|
B|----------------------------------------------------------------0-1-0---|
G|-9---9---9--4---2---2---2---4---5---5---5---6--2---2---2---2--0-------0-|
D|------------------------------------------------------------------------|
A|------------------------------------------------------------------------|
E|-8-8-8-8-8--3-3-1-1-1-1-1-1-3-3-5-5-5-5-5-5-6--1-1-1-1-1-1-1------------|

I'll let you look inside me through the stains and through the cracks

And in the darkness of this moment you'll see the good and bad

But try not to judge me cause we've walked down different paths

But it brought us here together so I won't take that back


Chorus
       C             G
We may shine, we may shatter
          Am                            F
We may be picking up the pieces here on after
       C               G
We are fragile, we are human
       Am                         F
We are shaped by the light we let through us
       G                        F    Am     C     G
But we break fast cause we are glass


e|----------------------------------------------------------------------|
B|--------------------------------------------------------------0-1-0---|
G|-5--7--9----9--4--2----2--4--5---5---5---6---2---2---2------0-------0-|
D|----------------------------------------------------------------------|
A|----------------------------------------------------------------------|
E|-5--7--8----8--3--1----1--3--5-5-5-5-5-5-6-6-1-1-1-1-1----------------|

We might be oil and water this could be a big mistake

We might burn like gasoline and fire, but it's a chance we'll have to take


Chorus
 C             G
We may shine, we may shatter
          Am                            F
We may be picking up the pieces here on after
       C               G
We are fragile, we are human
       Am                         F
We are shaped by the light we let through us
       G
But we break fast cause we are glass

                         we are glass
e|------------------------------------------------------------|
B|------------------------------------------------------------|
G|-9-9-9----4---2-2-2-0-----------------9-9-9----4---2-2-2-0--|
D|------------------------------------------------------------|
A|------------------------------------------------------------|
E|-8-8-8----3---1-1-1-1-----------------8-8-8----3---1-1-1-1--|
Tap to rate this tab
# A B C D E F G H I J K L M N O P Q R S T U V W X Y Z