Song name
# A B C D E F G H I J K L M N O P Q R S T U V W X Y Z

Thornley - Keep A Good Man Down tab

Keep a Good Man Down
Thornley


Tuning: open G5 1/2 step down (D-G-D-G-G-D)


intro pt1
d|----0----0-0-0--|
G|-7b-7-7b-7-7-7--|
G|-7b-7-7b-7-7-7--|  x4
D|----------------|
G|----------------|
D|----------------|

intro pt2
|------------0-------------0-------------0-----------|
|--------b7--7---------b7--7---------b7--7-----------|
|-5-5------------5-5-----------5-5----------5-5-3----|
|-5-5------------5-5-----------5-5----------5-5-3----|
|-5-5-3----------5-5-3---------5-5-3--------5-5-3----|
|-----1--------------1-------------1-----------------|


verse
|-0-0-0-0--|
|-7-8-7-8--|
|-0-0-0-0--|
|----------|
|----------|
|----------|

pre-chorus
|--------------------|
|--------------------|
|-1-1-1-1-3-3-3-3----|
|-1-1-1-1-3-3-3-3----|
|-1-1-1-1-3-3-3-3----|
|--------------------|

chorus
|------------------------------------------------------|
|------------------------------------------------------|
|-------------3-1-1-1-3-3-3-------------3-1-1-1-4-4-4--|
|-------------3-1-1-1-3-3-3-------------3-1-1-1-4-4-4--|
|-3-3-3-7-7-7-3-1-1-1-3-3-3-3-3-3-7-7-7-3-1-1-1-4-4-4--|
|-1-1-1-5-5-5---------------1-1-1-5-5-5----------------|

|----------------------------|
|----------------------------|
|-------------3-1-1-1--------|
|-------------3-1-1-1--------|
|-3-3-3-7-7-7-3-1-1-1-5-5-5--|
|-1-1-1-5-5-5---------3-3-3--| followed by intro pt2 

interlude
|--------------------------------------------------------|
|--------------------------------------------------------|
|-1-1--1-1-1--1-0-0--0-0------5-5--5-5-5--5-4-4--4-4-4---|
|-1-1--1-1-1--1-0-0--0-0------5-5--5-5-5--5-4-4--4-4-4---|
|-1-1--1-1-1--1-0-0--0-0-\7-6-5-5--5-5-5--5-4-4--4-4-4---|
|--------------------------------------------------------|

|---------------------------------------------------|
|---------------------------------------------------|
|-1-1--1-1-1--1-0-0--0-0------5-5--5-5-5--5---------|
|-1-1--1-1-1--1-0-0--0-0------5-5--5-5-5--5---------|
|-1-1--1-1-1--1-0-0--0-0-\7-6-5-5--5-5-5--5-5-5-5-5-|
|-------------------------------------------3-3-3-3-|

chorus again

finish with intro pt2
Tap to rate this tab
# A B C D E F G H I J K L M N O P Q R S T U V W X Y Z