Song name
# A B C D E F G H I J K L M N O P Q R S T U V W X Y Z

Thornley - Come Again tab

Tuning (low to high) Db-Ab-db-Gb-Bb-Eb

Intro
----------------------------------------------------------------------------|
----------------------------------------------------------------------------|
----------------------------------------------------------------------------|
---7H9-9-7-0--0-7H9-9-7-0--0-7H9-9-7-0--0-7H9-9-0-4-4-5-5-------------------|
---7H9-9-7-0--0-7H9-9-7-0--0-7H9-9-7-0--0-7H9-9-0-4-4-5-5-------------------|
---7H9-9-7-0--0-7H9-9-7-0--0-7H9-9-7-0--0-7H9-9-0-4-4-5-5-------------------|

Verse
----------------------------------------------------------------------------|
----------------------------------------------------------------------------|
----------------------------------------------------------------------------|
---7H9-9-7-0--0-7H9-9-7-0--0-7H9-9-7-0--0-7H9-9-0-4-4-5-5-------------------|
---7H9-9-7-0--0-7H9-9-7-0--0-7H9-9-7-0--0-7H9-9-0-4-4-5-5-------------------|
---7H9-9-7-0--0-7H9-9-7-0--0-7H9-9-7-0--0-7H9-9-0-4-4-5-5-------------------|
Palm Muted Throughout

Pre-Chorus
----------------------------------------------------------------------------|
----------------------------------------------------------------------------|
----------------------------------------------------------------------------|
---7-7-7-5-7--7-7-7-5-7--7-7-7-5-7--7-5-7--7-5-7--7-5-9-----0-----5---------|
---7-7-7-5-7--7-7-7-5-7--7-7-7-5-7--7-5-7--7-5-7--7-5-9-----0-----5---------|
---7-7-7-5-7--7-7-7-5-7--7-7-7-5-7--7-5-7--7-5-7--7-5-9-----0-----5---------|

Clean Part
--14-------12-------14-14-------12-------14---------------------------------|
-----15-------15----------15-------15---------------------------------------|
--------16-------16----------16-------16------------------------------------|
----------------------------------------------------------------------------|
----------------------------------------------------------------------------|
----------------------------------------------------------------------------|

----------------------------------------------------------------------------|
----------------------------------------------------------------------------|
----------------------------------------------------------------------------|
---9-----0-----5------9----0----2-------------------------------------------|
---9-----0-----5------9----0----2-------------------------------------------|
---9-----0-----5------9----0----2-------------------------------------------|
"ALL THIS AND MORE..."

Chorus (Strum The Pattern)
----------------------------------------------------------------------------|
----------------------------------------------------------------------------|
----------------------------------------------------------------------------|
--5------2------0------7------5------2------4-------------------------------|
--5------2------0------7------5------2------4-------------------------------|
--5------2------0------7------5------2------4-------------------------------|


Figure out the order,  isn't really that hard.  I'm sorry for the clean part, I haven't 
it out yet.
Tap to rate this tab
 
# A B C D E F G H I J K L M N O P Q R S T U V W X Y Z