Song name
# A B C D E F G H I J K L M N O P Q R S T U V W X Y Z

Thornley - Conscience And Consequence tab

Conscience and Consequence
Thornley

*sweet_inc*

tuned: drop D, 1/2 step down


main riff
d|-----------------------------------------------------------------------|
G|-----------------------------------------------------------------------|
B|-----------------------------------------------------------------------|
D|-----------------------------------------------------------------------|
A|--0-5-8-8----5-8-8-0-5-8-8----5-8-8-0-5-7-7----5-7-7-0-5-7-7----5-7-7--|
D|----------77---------------77---------------66---------------66--------|

d|-----------------------------------------------------------------------|
G|-----------------------------------------------------------------------|
B|-----------------------------------------------------------------------|
D|-----------------------------------------------------------------------|
A|--0-5-7-7----5-7-7-0-5-7-7----5-7-7-0-3-5-5----3-5-5-0-3-5-5----3-5-5--|
D|----------55---------------55---------------44---------------44--------|

guitar 2 verse
d|---------------------------------------|
G|---------------------------------------|
B|---------------------------------------|
D|---------------------------------------|
A|--7-7----6-6----5-5----4-4-------------|
D|--7-7----6-6----5-5----4-4-------------|

pre-chorus
d|--------------------------------------------------|
G|--------------------------------------------------|
B|--------------------------------------------------|
D|--------------------------------------------------|
A|--5-5-5-5-4-4-4-4-3-3-3-3-2-2-2-2--8-8-10-10------|
D|--5-5-5-5-4-4-4-4-3-3-3-3-2-2-2-2--8-8-10-10------|

chorus
d|------------------------------------------------------|
G|------------------------------------------------------|
B|------------------------------------------------------|
D|--------3--3-----5---5-------3--3------4-4-5-5-7------|
A|--0-0---1--1---3-3-3-3--0-0--1--1-5-5--2-2-3-3-5------|
D|--0-0----------3---3----0-0-------5-5-----------------|

into solo               out of solo
d|---------------------------------------|
G|---------------------------------------|
B|---------------------------------------|
D|-5-----------------------7-------------|
A|-5-----------------------7-------------|
D|-5-----------------------7-------------|
Tap to rate this tab
# A B C D E F G H I J K L M N O P Q R S T U V W X Y Z