Song name
# A B C D E F G H I J K L M N O P Q R S T U V W X Y Z

Thornley - Another Memory tab

Thornley
Another Memory

*sweet_inc*


Open D: low-high; D-A-D-F#-A-D...1/2 step down

intro x2
d|-----------------------------|
A|-----------------------------|
F|-0-0-0-1-1-1-3-3-3-3-3-3-----|
D|-0-0-0-0-0-0-0-0-0-0-0-0-----|
A|-0-0-0-1-1-1-3-3-1-1-3-3-----|
D|-----------------------------|

verse
|-----------------------------|
|-----------------------------|
|-0-0-0-1-1-1-3-3-3-3-3-3-----|
|-0-0-0-0-0-0-0-0-0-0-0-0-----|
|-0-0-0-1-1-1-3-3-1-1-3-3-----|
|-----------------------------|

|--------------------------------------|
|--------------------------------------|
|-0-0-0-1-1-1-3-3-3-3-3-3--------------|
|-0-0-0-0-0-0-0-0-0-0-0-0--------------|
|-0-0-0-1-1-1-3-3-1-1-3-3--5-3-0-------|
|--------------------------------5-4---|

|--------------------------------------|
|--------------------------------------|
|-0-0-0-1-1-1-3-3-3-3-3-3--------------|
|-0-0-0-0-0-0-0-0-0-0-0-0-2-2-2-3-3-3--|
|-0-0-0-1-1-1-3-3-1-1-3-3-2-2-2-3-3-3--|
|-------------------------2-2-2-3-3-3--|

|-----------------------------|
|-----------------------------|
|-0-0-0-1-1-1-3-3-3-3-3-3-----|
|-0-0-0-0-0-0-0-0-0-0-0-0-----|
|-0-0-0-1-1-1-3-3-1-1-3-3-----|
|-----------------------------|

|--------------------------------------|
|--------------------------------------|
|-0-0-0-1-1-1-3-3-3-3-3-3--------------|
|-0-0-0-0-0-0-0-0-0-0-0-0--------------|
|-0-0-0-1-1-1-3-3-1-1-3-3--5-3-0-------|
|--------------------------------5-4---|

|--------------------------------------|
|--------------------------------------|
|-0-0-0-1-1-1-3-3-3-3-3-3--------------|
|-0-0-0-0-0-0-0-0-0-0-0-0-2-2-2-3-3-3--|
|-0-0-0-1-1-1-3-3-1-1-3-3-2-2-2-1-1-1--|
Tap to rate this tab
# A B C D E F G H I J K L M N O P Q R S T U V W X Y Z