Song name
# A B C D E F G H I J K L M N O P Q R S T U V W X Y Z

Thornley - Man Overboard tab

Man Overboard
Thornley

*sweet_inc*


tuning - 1 Whole step down, Drop D (C-G-C-F-A-d)

intro
d|--------------------------------|
A|--------------------------------|
F|--------------------------------|
C|--------------------------------|
G|--------------------------------|
C|-0-0-0-0-0-0-0-0-0-0-0-0-0-0-0--|

main riff 1a
d|--------------------------------------------------------|
A|--------------------------------------------------------|
F|--------------------------------------------------------|
C|-----7-----7-5-----5-----5-8------8------8--7-----------|
G|-----8-----8-7-----7-----7-10-----10-----10-8------3-5--|
C|-0-0---0-0-----0-0---0-0------0-0----0-0-------3-5------|

main riff 1b
d|---------------------------------------------|
A|---------------------------------------------|
F|-----2-----2-0-----0-3--3-3--2---2-2---------|
C|-----3-----3-3-----3-5--5-5--3---3-3--2-2----|
G|--------------------------------------2-2----|
C|-3-3---3-3-----3-3-------------3------2-2----|

pre-chorus
d|-----------b8b8b8b8-----------------------------|
A|-----------b8b8b8b8-----------------------------|
F|------------------------------------------------|
C|---8-8-8-8--8-8-8-8------7-7-----5-5-----3-3----|
G|---8-8-8-8--8-8-8-8------8-8-----7-7-----5-5----|
C|---8-8-8-8--8-8-8-8--0-0-----0-0-----0-0--------|

chorus
d|------------------|
A|------------------|
F|--5-5-5-----------|
C|--5-5-5--5-5-5----| repeat as necessary
G|--3-3-3--5-5-5----|
C|---------5-5-5----|

guitar fill
d|------------------------|
A|------------------------|
F|--------------10/14-----|
C|--------10-12-----------|
G|--10-12-----------------|
C|------------------------|

solo - follow main riff and end on
d|---------|
A|---3-----|
F|---2-----|
C|---0-----|
G|---0-----|
C|---------|
Tap to rate this tab
 
# A B C D E F G H I J K L M N O P Q R S T U V W X Y Z