Song name
# A B C D E F G H I J K L M N O P Q R S T U V W X Y Z

Thornley - Your Song tab

-------------------------------------------------------------------------------
			     Your Song - Thornley
-------------------------------------------------------------------------------
Tabbed by:Lucas Kendall
Email:Lucas_the_monkeyman@hotmail.com

Tuning:Standard


Acoustic Part
e|---0-0-----0-0-----0-0-----0-0-------------------------------------------------------|
B|--3-3-3---3-3-3---3-3-3---3-3-3------------------------------------------------------|
G|-4-----444-----442-----221-----------------------------------------------------------|
D|-------------------------------------------------------------------------------------|
A|-------------------------------------------------------------------------------------|
E|-------------------------------------------------------------------------------------|

Lead Part
e|------------------------------------------------------------------------------|
B|------------------------------------------------------------------------------|
G|------------------------------------------------------------------------------|
D|------0-2b-0-0-4-0------------------------------------------------------------|
A|--5-2-------------0-4---------------------------------------------------------|
E|----------------------0-4-3b--------------------------------------------------|
Tap to rate this tab
 
# A B C D E F G H I J K L M N O P Q R S T U V W X Y Z